Song name
# A B C D E F G H I J K L M N O P Q R S T U V W X Y Z

Frank Zappa - Harry Youre A Beast tab

----------------------------------------------------------------------------
		    Harry, You're a Beast - Frank Zappa
----------------------------------------------------------------------------
Tabbed by: Kennezar (Kenneth Dale Harris IV)
Email: kenny4@kdharris.net

Tuning: Standard

e|-----------------------------------------9-5-7----------|
B|---------------8~-5----------------------9-5-7-7~-------|
G|--6--6-6-7-6-7------7-6----6--6-6-7-6-7--------6~-------|
D|------------------------7~------------------------------|
A|--------------------------------------------------------|
E|--------------------------------------------------------|

e|---------------------------------------------------------------------|
B|---------------------------------------------------------------------|
G|--6--6-6-7-6-7-7/9-7/9--7~--7-6~-6-7--4~--7-6~-6-7-4-----------------|
D|-----------------------------------------------------5---------------|
A|---------------------------------------------------------------------|
E|-------------------------------------------------------5-5-5-5-5-etc.|

e|-12-12-12--12-12-12--12-12-12--12-12-12---|
B|------------------------------------------|
G|--7--8--9---7--8--9---7--8--9---7--8--9---|
D|--7--8--9---7--8--9---7--8--9---7--8--9---|
A|------------------------------------------|
E|------------------------------------------|

e|------------------------------------------|
B|----8~~~---8-6-5---5-6--------------------|
G|-----------------7------------------------|
D|--7--------------------7~-----------------|
A|------------------------------------------|
E|------------------------------------------|

e|-12-12-12--12-12-12--12-12-12--12-12-12---|
B|------------------------------------------|
G|--7--8--9---7--8--9---7--8--9---7--8--9---|
D|--7--8--9---7--8--9---7--8--9---7--8--9---|
A|------------------------------------------|
E|------------------------------------------|
This end part sound better if you TAP each note.
e|----------------------------------------------------------------|
B|----------------------------------------------------------------|
G|-10-10-10-8-10-10--8-8-8-6-8-8--10-10-10-8-10-10--8-8-8-6-8-8---|
D|----------------------------------------------------------------|
A|----------------------------------------------------------------|
E|----------------------------------------------------------------|



| /  slide up
| \  slide down
| h  hammer-on
| p  pull-off
| ~  vibrato
| +  harmonic
| x  Mute note
============================================================================
Tap to rate this tab
 
# A B C D E F G H I J K L M N O P Q R S T U V W X Y Z