Song name
# A B C D E F G H I J K L M N O P Q R S T U V W X Y Z

Frank Zappa - Rudy Wants To Buy Yez A Drink tab

---------------------------------------------------------------------------
		  Ruday Wants to Buy Yez a Drink - Frank Zappa
                                     From:
                               "Chunga's Revenge"
---------------------------------------------------------------------------
Tabbed by: Kennezar (Kenneth Dale Harris IV)
Email: kenny4@kdharris.net
 
Tuning: Standard
Main Riff:
   C           Am          F           G
e|-------------------------1-1-1-1-1---3-3-3-3-3------|------------|
B|-1-1-1-1-1---1-1-1-1-1---1-1-1-1-1---3-3-3-3-3------|------------|
G|-0-0-0-0-0---2-2-2-2-2---2-2-2-2-2---4-4-4-4-4------|------------|
D|-2-2-2-2-2---2-2-2-2-2---3-3-3-3-3---5-5-5-5-5------|-5-5-3-2-0--|
A|-3-3-3-3-3---0-0-0-0-0------------------------------|------------|
E|----------------------------------------------------|------------|

e|-3-3--1--3~---3-3--1--3~------------------------|
B|-3-3--1--3~---3-3--1--3~------------------------|
G|-4-4--2--4~---4-4--2--4~------------------------|
D|-5-5--3--5~---5-5--3--5~------------------------|
A|------------------------------------------------|
E|------------------------------------------------|
Fill:
e|--------------------------------------------|
B|--------------------------------------------|
G|--------------------------------------------|
D|--------------------------------------------|
A|-5--5-5---3-3----5--5-5---3-3---5-----------|
E|-3--3-3---1-1----3--3-3---1-1---3-----------|
Bridge:
e|-----------------------------------------|
B|-----------------------------------------|
G|--5-5-5\--2-2-2--------------------------|
D|--5-5-5\--2-2-2---3-3-3--5-5-5-----------|
A|--3-3-3\--0-0-0---3-3-3--5-5-5-----------|
E|------------------1-1-1--3-3-3-----------|
 1st Part                       |2nd Part  (play first part after 2nd also.)
e|------------------------------|------------------------------------------|
B|-8~~~--5----------------------|--8~~---8-10--10/13-10~-8~----------------|
G|---------7-5--7~---5~---5h7p5~|------9--------------------9~-7~----------|
D|-----------------7----7-------|------------------------------------------|
A|------------------------------|------------------------------------------|
E|------------------------------|------------------------------------------|
Tap to rate this tab
# A B C D E F G H I J K L M N O P Q R S T U V W X Y Z