Song name
# A B C D E F G H I J K L M N O P Q R S T U V W X Y Z

Frank Zappa - Down In De Dew tab

----------------------------------------------------------------------------
			 Down in de Dew - Frank Zappa
                                     From:
                                   "Lather" (leather)
----------------------------------------------------------------------------
Tabbed by: Kennezar (Kenneth Dale Harris IV)
Email: kenny4@kdharris.net

Tuning: Standard
Play two times. (Main Riff)
e|-----------------------------------------------------|
B|-----------------------------------------------------|
G|-10-11-10-11~---8---------------9-8----13-13---------|
D|------------------10-10~--11-13-----11-------7-7~----|
A|-----------------------------------------------------|
E|-----------------------------------------------------|
This part is played very gently. (play eight times)
e|----------------------------------------------|
B|----------------------------------------------|Zappa plays these two parts
G|-12-14-14^16^14^16-12-------------------------|with a bunch of over dubbed
D|----------------------14----------------------|guitars playing gentel 
A|----------------------------------------------|bends.
E|----------------------------------------------|
These two parts are'nt the real thing but thier as good as it gets.
e|-------------------------------------|(Play Eight Times)
B|-------------------------------------|
G|-------------------------------------|
D|-------------------------------------|
A|--7-9-9^11^9^11-7--------------------|
E|------------------9------------------|
Play two times.
e|-----------------------------------------------------|
B|-----------------------------------------------------|
G|-10-11-10-11~---8---------------9-8----13-13---------|
D|------------------10-10~--11-13-----11-------7-7~----|
A|-----------------------------------------------------|
E|-----------------------------------------------------|
This is the start of the solo, which is a bunch of whammy bar action and
e|-0~---------------|foolin' with the "D" string.
B|---9~-------------|
G|-----11~----------|
D|--------12~-------|
A|-----------12~----|
E|------------------|


| /  slide up
| \  slide down
| h  hammer-on
| p  pull-off
| ~  vibrato
| +  harmonic
| x  Mute note
============================================================================
Tap to rate this tab
 
# A B C D E F G H I J K L M N O P Q R S T U V W X Y Z