Song name
# A B C D E F G H I J K L M N O P Q R S T U V W X Y Z

Frank Zappa - Orange County Lumber Truck Part 1 tab

----------------------------------------------------------------------------
	      Orange County Lumber Truck Pt. 1 - Frank Zappa
----------------------------------------------------------------------------
Tabbed by: Kennezar (Kenneth Dale Harris)
Email: kenny4@kdharris.net

Tuning: Standard
Main Riff:  (Play Twice)
e|-------------------------------------------------------------------------|
B|--------------------10-10-10-10--12-12--12-12-12-------------------------|
G|---------9-9--9-9-9------------------------------11-11-11-11--8h9-8h9----|
D|11-11-11--------------------------------------------------------------11-|
A|-------------------------------------------------------------------------|
E|-------------------------------------------------------------------------|
(Play Three Times)
e|------------------------|
B|------------------------|
G|-9~-11~--9~-11~--9-11---|
D|-9~-11~--9~-11~--9-11---|
A|------------------------|
E|------------------------|
(Play Once)  Very Fast!  (Pull-Off's and Hammer-On's)
e|-------------------------------------------|
B|-17-14-------19-17--------------14-17-16~--|
G|-------16-14-------16-14--14-16------------|
D|-------------------------------------------|
A|-------------------------------------------|
E|-------------------------------------------|
Main Riff:  (Play Twice)
e|-------------------------------------------------------------------------|
B|--------------------10-10-10-10--12-12--12-12-12-------------------------|
G|---------9-9--9-9-9------------------------------11-11-11-11--8h9-8h9----|
D|11-11-11--------------------------------------------------------------11-|
A|-------------------------------------------------------------------------|
E|-------------------------------------------------------------------------|
(Play Three Times)
e|------------------------|
B|------------------------|
G|-9~-11~--9~-11~--9-11---|
D|-9~-11~--9~-11~--9-11---|
A|------------------------|
E|------------------------|

(Play Once)  Very Fast!  (Pull-Off's and Hammer-On's)
e|-------------------------------------------|
B|-17-14-------19-17--------------14-17-16~--|
G|-------16-14-------16-14--14-16------------|
D|-------------------------------------------|
A|-------------------------------------------|
E|-------------------------------------------|
Play this directly after the above part.
e|----------------------------------------------|
B|-15-12-------17-15--------------12-15-14~-----|
G|-------14-12-------14-12--12-14---------------|
D|----------------------------------------------|
A|----------------------------------------------|
E|----------------------------------------------|
(Play Twice)
e|-------------------------------------------------------------------------|
B|-------------------12-12-12-12--14-14--14-14-14--------------------------|
G|--------12-12-12-12----------------------------14-14--14-14-11h12-11h12--|
D|12-12-12---------------------------------------------------------------12|
A|-------------------------------------------------------------------------|
E|-------------------------------------------------------------------------|
(Play Three Times)
e|--------------------------|
B|--------------------------|
G|-12~-14~--12~-14~--12-14--|
D|-12~-14~--12~-14~--12-14--|
A|--------------------------|
E|--------------------------|


| /  slide up
| \  slide down
| h  hammer-on
| p  pull-off
| ~  vibrato
| +  harmonic
| x  Mute note
============================================================================
Tap to rate this tab
 
# A B C D E F G H I J K L M N O P Q R S T U V W X Y Z