Song name
# A B C D E F G H I J K L M N O P Q R S T U V W X Y Z

Frank Zappa - Any Way The Wind Blows tab

----------------------------------------------------------------------------
	            Any Way The Wind Blows - Frank Zappa
                                     From:
                                  "Freak Out"
----------------------------------------------------------------------------
Tabbed by: Kennezar (Kenneth Dale Harris IV)
Email: kenny4@kdharris.net

Tuning: Standard
Opening Riff: Intro
e|-------------------------------------------------------|
B|----3--------------------------------------------------|
G|-/4---4p20-0h2p0---0-----------------------------------|
D|-----------------2-------------------------------------|
A|-------------------------------------------------------|
E|-------------------------------------------------------|

Main Riff: Verse
   G  G   G  F# F     E
e|-3~-3---3--2--1-----0-----------|
B|-3~-3---3--2--1-----0-----------|
G|-4~-4---4--3--2-----1-----------|
D|-5~-5---5--4--3-----2-----------|
A|-5~-5---5--4--3-----2-----------|
E|-3~-3---3--2--1--0--0-----------|

Chorus:
   C C  Bm Bm Am Am  G
e|-------------------3~-------------------------------------------|
B|-5-5---3-3---1-1---3~-------------------------------------------|
G|-5-5---4-4---2-2---4~-------------------------------------------|
D|-5-5---4-4---2-2---5~-------------------------------------------|
A|-3-3---2-2---0-0---5~-------------------------------------------|
E|-------------------3~-------------------------------------------|

e|-------------------------------------------------------|
B|----3--------------------------------------------------|
G|-/4---4p20-0h2p0---0-----------------------------------|
D|-----------------2-------------------------------------|
A|-------------------------------------------------------|
E|-------------------------------------------------------|
Repeat four times.
e|----------------------------------------------------|
B|---------------------------3/5-3~-------------------|
G|-------0-2-0~--------0-2-0--------4-2-4~------------|
D|-0-0-2---------0-0-2--------------------------------|
A|----------------------------------------------------|
E|----------------------------------------------------|

  C C  Bm Bm Am Am  G
e|-------------------3~--------------------------------|
B|-5-5---3-3---1-1---3~--------------------------------|
G|-5-5---4-4---2-2---4~--------------------------------|
D|-5-5---4-4---2-2---5~--------------------------------|
A|-3-3---2-2---0-0---5~--------------------------------|
E|-------------------3~--------------------------------|

e|-------------------------------------------------------|
B|----3--------------------------------------------------|
G|-/4---4p20-0h2p0---0-----------------------------------|
D|-----------------2-------------------------------------|
A|-------------------------------------------------------|
E|-------------------------------------------------------|

  G  G   G  F# F     E
e|-3~-3---3--2--1-----0-----------|
B|-3~-3---3--2--1-----0-----------|
G|-4~-4---4--3--2-----1-----------|
D|-5~-5---5--4--3-----2-----------|
A|-5~-5---5--4--3-----2-----------|
E|-3~-3---3--2--1--0--0-----------|

Chorus:
   C C  Bm Bm Am Am  G
e|-------------------3~--------------------------------|
B|-5-5---3-3---1-1---3~--------------------------------|
G|-5-5---4-4---2-2---4~--------------------------------|
D|-5-5---4-4---2-2---5~--------------------------------|
A|-3-3---2-2---0-0---5~--------------------------------|
E|-------------------3~--------------------------------|
Repeat Four Times.
e|----------------------------------------------------|
B|----3-----------------------------------------------|
G|-/4---4p20-0h2p0---0--------------------------------|
D|-----------------2----------------------------------|
A|----------------------------------------------------|
E|----------------------------------------------------|


| /  slide up
| \  slide down
| h  hammer-on
| p  pull-off
| ~  vibrato
| +  harmonic
| x  Mute note
============================================================================
Tap to rate this tab
 
# A B C D E F G H I J K L M N O P Q R S T U V W X Y Z