Song name
# A B C D E F G H I J K L M N O P Q R S T U V W X Y Z

Frank Zappa - Pygmy Twylyte tab

----------------------------------------------------------------------------
		  Pygmy Twylyte - Frank Zappa & The Mothers
                                     From:
                               "Roxy & Elsewhere"
----------------------------------------------------------------------------
Tabbed by: kennezar (Kenneth Dale Harris IV)
Email:kenny4@kdharris.net

Tuning: Standard
Main Riff, but it's played on a stand-up bass.(octave or 2 lower)
e|---------------------------------|---------------------------------------|
B|----10-12------------------------|------10-12----------------------------|
G|---------------------------------|---------------------------------------|
D|-12------12-9-7-9--12-9--2^4^2p0-|-12-12-----12-9--7-9-16-16-14-14--14-12|
A|---------------------------------|---------------------------------------|
E|---------------------------------|---------------------------------------|

e|------------------------------------------------------------|
B|------------------------------------------------------------|
G|-----------------------------------------16-16-14-14--12~---|
D|---------12~--------12~-------------12~---------------------|
A|-14-12-14---14-12-14---14---14-12-14---14-------------------|
E|------------------------------------------------------------|
Here's where Frank's distorted guitar comes in.
e|----------------------------------------------------|
B|----------------------------------------------------|
G|----------------------------------------------------|
D|------0-------------0-----4-4-4-4-2-2-0-------------|
A|-2~-2---2-0-2-2---2---2-0---------------2~----------|
E|----------------------------------------------------|

e|-----------------------------------------------------------------------|
B|-----------------------------------------------------------------------|
G|-----------------------------------------------------------------------|
D|-2h4-4-2~-0-2-2h4-2h4-2~---2h4-4-2~-0-2-2h4-2h4-4-2-0--------0-------0-|
A|------------------------------------------------------0-2-0-2-2-2-0-2-2|
E|-----------------------------------------------------------------------|
                           Repeat this last part four times.
e|------------------------|-------------------------------| 
B|------------------------|-------------------------------| 
G|------------------------|-------------------------------|
D|-0-4-4-2-0----4-4-2-0---|-------0---------/4-4-2-0-4\---|
A|-----------2----------2-|-2-0-2---0-2\------------------|
E|------------------------|-------------------------------|
Tap to rate this tab
# A B C D E F G H I J K L M N O P Q R S T U V W X Y Z