Song name
# A B C D E F G H I J K L M N O P Q R S T U V W X Y Z

Frank Zappa - Be In My Video tab

-------------------------------------------------------------------------------
			     Be in My Video - Frank Zappa
-------------------------------------------------------------------------------
Tabbed by: Adam Warburton
Written by: Frank Zappa
Tabbed on: 13th May 2006
Tuning: Standard. E,A,D,G,B,e
Album: Them of us

e|---------------------------------------------------------------------------|
B|---------------------------------------------------------------------------|
G|---------------------------------------------------------------------------|
D|--------------7--5--------------77-5--------------2-----------------22-----|
A|----------7-----------------7------------------3------5----------3-------5-|
E|--8---8-------------8---8--------------5---5-------------5---5-------------|
    Bum bum bum bimbo bum bum bum bimbo, Bum bum bum bimbo bum bum bum bimbo
e|---------------------------------------------------------------------------|
B|---------------------------------------------------------------------------|
G|---------------------------------------------------------------------------|
D|--------------0-----------------00-----------------2--0--------------22-0--|
A|----------0------3----------0------3-----------2-----------------2---------|
E|--1---1-------------1---1--------------3---3-------------3---3-------------|
    Bum bum bum bimbo bum bum bum bimbo, Bum bum bum bimbo bum bum bum bimbo

    C               A                    F
e|---------------------------------------------------------------------------|
B|---------------------------------------------------------------------------|
G|--9---------------6--------------------2-----------------------------------|
D|--10--------------7--------------------3-----------------------------------|
A|--10--------------7--------------------3-----------------------------------|
E|--8---------------5--------------------1-----------------------------------|
    Be in my video, Darling every night, I will rent a cage for you,

    G
e|---------------------------------------------------------------------------|
B|---------------------------------------------------------------------------|
G|--4------------------------------------------------------------------------|
D|--5------------------------------------------------------------------------|
A|--5------------------------------------------------------------------------|
E|--3------------------------------------------------------------------------|
    And mi-j-i-nits dressed in white.
Tap to rate this tab
# A B C D E F G H I J K L M N O P Q R S T U V W X Y Z