Song name
# A B C D E F G H I J K L M N O P Q R S T U V W X Y Z

Frank Zappa - Ms Pinky tab

Help us improve GuitareTab! Take a short survey!
------------------------------------------------------------------------------
			     Ms Pinky - Frank Zappa
-------------------------------------------------------------------------------
Tabbed by: Adam Warburton
Written by: Frank Zappa
Album Zoot Allures
Tuning: E,A,D,G,B,e

e|----------------------------------------------|
B|----------------------------------------------|
G|-6-6--6-6--6-6-6-8-11---6-6--6-6--6-6-6-8-4---|
D|-7-7--7-7--7-7-7-9-12---7-7--7-7--7-7-7-9-5---|
A|-7-7--7-7--7-7-7-9-12---7-7--7-7--7-7-7-9-5---|
E|-5-5--5-5--5-5-5-7-10---5-5--5-5--5-5-5-7-3---|

e|----------------------------------------|
B|----------------------------------------|
G|-6-6--6-6--6-6-6-8-11---6-6--6-6--4-1---|
D|-7-7--7-7--7-7-7-9-12---7-7--7-7--5-2---|
A|-7-7--7-7--7-7-7-9-12---7-7--7-7--5-2---|
E|-5-5--5-5--5-5-5-7-10---5-5--5-5--3-0---|


===============================================================================
Related for Ms Pinky tab