Song name
# A B C D E F G H I J K L M N O P Q R S T U V W X Y Z

Frank Zappa - Chungas Revenge tab

Chunga's Revenge
Trance-Fusion
Frank Zappa

This is the intro to Chunga's revenge as heard on Trance-Fusion, an amazing freakin album.

This is the rhythm section played by the horns

E-------------------------   |
B------------------------- 0 |
G-------------------------   |
D-------------------------   |
A-----5---8-7-8--8-7-8---- 0 |
E---5---------------------   |

Guitar part

E-12--10----12--13-12-10----12---13---12---8-------------------|
B--------------------------------------------------------------|
G-------------------------------------------:-12-12-12-12-12---|
D--------------------------------------------------------------|
A--------------------------------------------------------------|
E--------------------------------------------------------------|

Then the rhythm changes a bit.

E-12--10----12--13-12-10----12---13---12---8----------------|
B-----------------------------------------------------------|
G-------------------------------------------:-9-9--10--12-:-|
D-----------------------------------------------------------|
A-----------------------------------------------------------|
E-----------------------------------------------------------|

The reapeted parts after the guitar riff are mainly just the bass and horns in the 
Listen to the song to get the exact rhythms and try your hand at the solo because there is no 
anyone is going to get that down.
Music is the best.
Tap to rate this tab
 
# A B C D E F G H I J K L M N O P Q R S T U V W X Y Z