Song name
# A B C D E F G H I J K L M N O P Q R S T U V W X Y Z

Frank Zappa - Treacherous Cretins tab

Help us improve GuitareTab! Take a short survey!
Song: Treacherous Cretins
Artist: Frank Zappa
Album: Shut Up 'n' Play Yer Guitar

This is my first tab so please go easy on me!

e|----------7--------------7-------------7-------------7---------|
B|------10-----10------10-----10-----10-----10-----10-----10-----|
G|--10-------------10-------------9-------------9----------------|
D|---------------------------------------------------------------|
A|---------------------------------------------------------------|
E|---------------------------------------------------------------|

e|----------7--------------7-------------7-------------7---------|
B|------10-----10------10-----10-----10-----10-----10-----10-----|
G|--10-------------10-------------9-------------9----------------|
D|---------------------------------------------------------------|
A|---------------------------------------------------------------|
E|---------------------------------------------------------------|

That just basically repeats throughout the entire song.
Related for Treacherous Cretins tab