Song name
# A B C D E F G H I J K L M N O P Q R S T U V W X Y Z

Frankenbok - Hole tab

Help us improve GuitareTab! Take a short survey!
Band - Frankenbok
Song - The Hole
Album - Blood Oath

An Aussie metal band \m/

Tempo - 90
Tie Note - <#>
Rest - [#]

Keyboard Intro:
D||----12----12----12----12-16-----|---<16>----12----12----12-16-----|
A||x------14----14----14-----------|--------14----14----14-----------|
F||--------------------------------|---------------------------------|
C||--------------------------------|---------------------------------|
G||x-------------------------------|---------------------------------|
D||--------------------------------|---------------------------------|

D:---<16>----12----12----12--------|-----------------16--------------||
A:--------14----14----14----14-----|---13---------------------------x||
F:---------------------------------|---------------------------------||
C:---------------------------------|---------------------------------||
G:---------------------------------|--------------------------------x||
D:---------------------------------|---------------------------------||
........................................................................
Keyboard intro repeats a second time, while vocals start in the 5th bar.

Vocals:
D:---------------------------------|---------------------------------|
A:-[1/4]--4--------2-------5-------|-4---------------2---------------|
F:---------------------------------|---------4---------------3-------|
C:---------------------------------|---------------------------------|
G:---------------------------------|---------------------------------|
D:---------------------------------|---------------------------------|

D:---------------------------------|---------------------------------|
A:-[1/4]--4--------2-------5-------|-4-------------------------------|
F:---------------------------------|---------------------------------|
C:---------------------------------|---------------------------------|
G:---------------------------------|---------------------------------|
D:---------------------------------|---------------------------------|
........................................................................
Guitar Enters with Riff A: (on 9th bar)
D:----------------------------------|------------------------------|
A:----------------------------------|------------------------------|
F:----8-----------------------------|--------8---------------------|
C:----6---------------------8--6-8--|-6-4----6---------------------|
G:--------------------7-------------|------------------------7-----|
D:-4-----4-4-4--6-7-----0-----------|-----4-----4-4-4--6-7-----0---|

D:---------------------------------|--------------------------------|
A:---------------------------------|--------------------------------|
F:----------------8----------------|------------------8-------------|
C:-8--6-8-6--4----6----------------|----8--6-8-6-4----6-------------|
G:-------------------------------7-|--------------------------------|
D:-------------4-----4-4-4--6-7----|-0-------------4-----4-4-4--6-7-|

  2/4 Time signature        Riff B:  4/4 Time signature
D:--------------------------|---------------------------------|
A:--------------------------|---------------------------------|
F:--------------------------|---------------------------------|
C:--------------------------|---------------------------------|
G:--------------------------|-------2---2-1-------------------|
D:-<7>-[1/16]--0-0--[3/16]--|--4--4---4-----4-2-0-0-0-2--2-2--|

D:---------------------------------|--------------------------------|
A:---------------------------------|--------------------------------|
F:---------------------------------|--------------------------6--4--|
C:---------------------------------|-----------------------4--6--4--|
G:-------2---2-1-------------------|-------2---2-1---------4--4--2--|
D:--4--4---4-----4-2-0-0-0-2--2-2--|--4--4---4-----4-2-0-0-2--------|
Related for Hole tab