Song name
# A B C D E F G H I J K L M N O P Q R S T U V W X Y Z

Frankenstein Drag Queens From Planet 13 - Eat Drugs First tab

Artist:Frankenstein Drag Queens From The Planet 13
Song:Eat Drugs First

Intro/Chorus: Guitar 1          Guitar 2
|------------------|   |-------------------------------------|
|------------------|   |-------------------------------------|
|------------------|   |-7-6------7-6-----7-6------7-6-7-9-6-|
|-7-6------7-6-----|   |-----7--7-----777-----7--7-----------|
|-5-4-7--7-5-4-777-|   |-------------------------------------|
|-----5--5-----555-|   |-------------------------------------|

Verse: Guitar 1 and 2
|-------------------------------------------------------|
|-------------------------------------------------------|
|-------------------------------------------------------|
|-------------------------------------------------------|
|-7-6-7-xx-7-6-7-xx-7-6-7---4-4-4-xx---4-4-4-xx---4-4-4-|
|-5-4-5-xx-5-4-5-xx-5-4-5-0-2-0-2-xx-0-2-0-2-xx-0-2-0-2-|


|--------------------|
|--------------------|
|-7777-99999999------|
|-7777-99999999------|x4
|-5555-77777777------|
|--------------------|

Chorus

Guitar 2 in Chorus
|-----------------------------------------|
|-10-9----10--9-----10-9---9-10-9---------|
|------99-------999------9--------999-----|
|-----------------------------------------|
|-----------------------------------------|
|-----------------------------------------|

You can tlk to me or email me at darcy_hyde2@hotmail.com
plz rate my tabs thanx.
Tap to rate this tab
# A B C D E F G H I J K L M N O P Q R S T U V W X Y Z