Guitaretab - guitar tabs
Song name
# A B C D E F G H I J K L M N O P Q R S T U V W X Y Z

Frankenstein Drag Queens From Planet 13 - Evil Is Good tab

Listen to the song for timing! It's pretty easy really.
I'm sure this is 100% correct but if you think i'v made
a mistake just email me at x_20-marc-06_x@hotmail.co.uk

Intro/Verse
E||-----------------------|-----------------------|
B||-----------------------|-----------------------|
G||-----------------------|-----------------------|
D||-----------------------|-----------------------|
A||-----------------------|-----------------------|
E||--7--8--7--8--7--5--2--|--7--8--7--8--7--5--7--|

E||-----------------------|-----------------------|
B||-----------------------|-----------------------|
G||-----------------------|-----------------------|
D||-----------------------|-----------------------|
A||-----------------------|-----------------------|
E||--8--7--5--2-----------|-----------------------|

Riff 1:

E||-----------------------|-----------------------|
B||-----------------------|-----------------------|
G||-----------------------|-----------------------|
D||-----------------------|-----------------------|
A||-----------------------|-----------------------|
E||--7--8--7--8--7--5--2--|--7--8--7--8--7--5--7--|

E||-----------------------|-----------------------|
B||-----------------------|-----------------------|
G||-----------------------|-----------------------|
D||--10-9--7--4-----------|-----------------------|
A||--10-9--7--4-----------|-----------------------|
E||--8--7--5--2-----------|-----------------------|

E||-----------------------|-----------------------|
B||-----------------------|-----------------------|
G||-----------------------|-----------------------|
D||--9--10-9--10-9--7--4--|--9--10-9--10-9--7--9--|
A||--9--10-9--10-9--7--4--|--9--10-9--10-9--7--9--|
E||--7--8--7--8--7--5--2--|--7--8--7--8--7--5--7--|
[ Tab from: http://www.guitaretab.com/f/frankenstein-drag-queens-from-planet-13/140872.html ]
E||-----------------------|-----------------------|
B||-----------------------|-----------------------|
G||-----------------------|-----------------------|
D||--10-9--7--4-----------|-----------------------|
A||--10-9--7--4-----------|-----------------------|
E||--8--7--5--2-----------|-----------------------|

Verse:

Pre Chorus:

Chorus:

E||-----------------------|-----------------------|
B||-----------------------|-----------------------|
G||-----------------------|-----------------------|
D||--9--------------------|--7--------------------|
A||--9--------------------|--7--------------------|
E||--7--------------------|--5--------------------|

E||-----------------------|-----------------------|
B||-----------------------|-----------------------|
G||-----------------------|-----------------------|
D||--9--10-9--10-9--7--9--|--10-9--7--4-----------|
A||--9--10-9--10-9--7--9--|--10-9--7--4-----------|
E||--7--8--7--8--7--5--7--|--8--7--5--2-----------|

Solo: (Play verse riff behind the solo)

E||-----------------------|-----------------------|
B||-----------------------|-----------------------|
G||--16-17-16-17-16-14----|-----------------------|
D||--------------------16-|-14--------------------|
A||-----------------------|-----------16----------|
E||-----------------------|-----------------------|

E||-----------------------|-----------------------|
B||-----------------------|-----------------------|
G||-----------------------|-----------------------|
D||-----------------------|-----------------------|
A||--14-15-14-15-14-12-14-|--15-14-12-9-----------|
E||-----------------------|-----------------------|

E||-----------------------|-----------------------|
B||-----------------------|-----------------------|
G||--16~~~~16~~~~16-14----|-----------------------|
D||--------------------16~|~~~~~~~~~~~~~~~~~~~~~~~|
A||-----------------------|-----------------------|
E||-----------------------|-----------------------|

E||-----------------------|-----------------------|
B||-----------------------|-----------------------|
G||--16b17b16b17b16b17b16-|-17-16-14--------------|
D||-----------------------|----------16~~~~~~~~~~~|
A||-----------------------|-----------------------|
E||-----------------------|-----------------------|

Verse

Chorus

Riff 1

It's a really easy song and the timing is easy to work out! Enjoy!
Related for Evil Is Good tab
Advertisement will be closed in 10 seconds