Song name
# A B C D E F G H I J K L M N O P Q R S T U V W X Y Z

Frankenstein Drag Queens From Planet 13 - Mr Motherfucker tab

This song is so easy. You can figure out where everything goes.

Strum this part VVVVV

Intro: Do this over and over for a while.
E----------------------------------------------------------------|
B----------------------------------------------------------------|
G----------------------------------------------------------------|
D----5-5-5-5-5-5-------------------------------------------------|
A----5-5-5-5-5-5-------------------------------------------------|
E----3-3-3-3-3-3-------------------------------------------------|


E----------------------------------------------------------------|
B----------------------------------------------------------------|
G-----------------5-5-5-5-5-5-5-5-5-5-5-5-5-5-5-5----------------|
D----5-5-5-5-5-5--5-5-5-5-5-5-5-5-5-5-5-5-5-5-5-5----------------|
A----5-5-5-5-5-5--3-3-3-3-3-3-3-3-3-3-3-3-3-3-3-3----------------|
E----3-3-3-3-3-3-------------------------------------------------|

    Guitar 2       Let ring
                 E-8-----------|
                 B-------------|
                 G-------------|
                 D-------------|
                 A-------------|
                 E-------------|


Chorus: Do this a few times VV
E----------------------------------------------------------------|
B----------------------------------------------------------------|
G----------------------------------------------------------------|
D----5-5-5-5--3-5--5-5-5-5--3-5----------------------------------|
A----5-5-5-5--3-5--5-5-5-5--3-5----------------------------------|
E----3-3-3-3--1-3--3-3-3-3--1-3----------------------------------|


Guitar 2 Play this a few times VV
E----------------------------------------------------------------|
B----------------------------------------------------------------|
G----------------------------------------------------------------|
D----------------------------------------------------------------|
A----------------------------------------------------------------|
E----3-3-3-3-1-3--3-3-3-3-6-3------------------------------------|


E-----------------------------------------------------------------|
B-----------------------------------------------------------------|
G-5-5-5-5-5-5-5-5-5-5-5-5-5-5-5-5-7-7-7-7-7-7-7-7-7-7-7-7-7-7-7-7-|
D-5-5-5-5-5-5-5-5-5-5-5-5-5-5-5-5-7-7-7-7-7-7-7-7-7-7-7-7-7-7-7-7-|
A-3-3-3-3-3-3-3-3-3-3-3-3-3-3-3-3-5-5-5-5-5-5-5-5-5-5-5-5-5-5-5-5-|
E-----------------------------------------------------------------|

Let ring------------------------v ------------------------------v

E-8-------------------------------5------------------------------|
B----------------------------------------------------------------|
G----------------------------------------------------------------|
D----------------------------------------------------------------|
A----------------------------------------------------------------|
E----------------------------------------------------------------|

Then do the Chorus a few times.
This tab took me five minutes to figure out.
Good luck =]
Any questions: Joey_112@hotmail.co.uk
Tap to rate this tab
# A B C D E F G H I J K L M N O P Q R S T U V W X Y Z