Guitaretab - guitar tabs
Song name
# A B C D E F G H I J K L M N O P Q R S T U V W X Y Z

Frankenstein Drag Queens From Planet 13 - Natalie Youre Really Not That Cool tab

=======================================================================
Song: Natalie (Youíre Really Not That Cool)
Artist: Frankenstein Drag Queens from Planet 13
Tabbed by: dennis
Email: darkarrivalx@hotmail.com
=======================================================================

This is one of my favorite FDQ songs.  I couldnít find a tab for it 
anywhere, so I decided to write one.  Itís my first tab, but I think 
itís pretty accurate.  Any corrections are welcome.  Also, if anyone
knows the correct lyrics, I'd love to have them.


Tuning: Standard(EADGBe)

Verse:

e|-----------------------------------------------------------------|
B|-----------------------------------------------------------------|
G|-5---------------------------------------------------------------|
D|-5-------------------------------3-------------------------------|
A|-3-------------------------------3-------------------------------|
E|---------------------------------1-------------------------------|

e|-----------------------------------------------------------------|
B|-----------------------------------------------------------------|
G|-5-5-5-5-5-5-5-5-5-5-5-5-5-5-5-5---------------------------------|
D|-5-5-5-5-5-5-5-5-5-5-5-5-5-5-5-5-3-3-3-3-3-3-3-3-3-3-3-3-3-3-3-3-|x2
A|-3-3-3-3-3-3-3-3-3-3-3-3-3-3-3-3-3-3-3-3-3-3-3-3-3-3-3-3-3-3-3-3-|
E|---------------------------------1-1-1-1-1-1-1-1-1-1-1-1-1-1-1-1-|

Pre-Chorus:

e|---------------------------------|
B|---------------------------------|
G|-5-5-5-5-5-5-5-2-2-2-2-2-2-2-2-2-|
D|-5-5-5-5-5-5-5-2-2-2-2-2-2-2-2-2-|
A|-3-3-3-3-3-3-3-0-0-0-0-0-0-0-0-0-|
E|---------------------------------|
[ Tab from: http://www.guitaretab.com/f/frankenstein-drag-queens-from-planet-13/183288.html ]
e|---------------------------------|
B|---------------------------------|
G|-----------------5-5-5-5-5-5-5-5-|
D|-3-------5-------5-5-5-5-5-5-5-5-|
A|-3-------5-------3-3-3-3-3-3-3-3-|
E|-1-------3-----------------------|

Chorus:

e|-----------------------------------------------------------------|
B|-----------------------------------------------------------------|
G|---------------------------------5-5-5-5-5-5-5-5-5-5-5-5-5-5-5-5-|
D|-5-5-5-5-5-5-5-5-5-5-5-5-5-5-5-5-5-5-5-5-5-5-5-5-5-5-5-5-5-5-5-5-|
A|-5-5-5-5-5-5-5-5-5-5-5-5-5-5-5-5-3-3-3-3-3-3-3-3-3-3-3-3-3-3-3-3-|
E|-3-3-3-3-3-3-3-3-3-3-3-3-3-3-3-3---------------------------------|

e|-----------------------------------------------------------------|
B|-----------------------------------------------------------------|
G|-----------------------------------------------------------------|
D|-3-3-3-3-3-3-3-3-3-3-3-3-3-3-3-3-5-5-5-5-5-5-5-5-5-5-5-5-5-5-5-5-|
A|-3-3-3-3-3-3-3-3-3-3-3-3-3-3-3-3-5-5-5-5-5-5-5-5-5-5-5-5-5-5-5-5-|
E|-1-1-1-1-1-1-1-1-1-1-1-1-1-1-1-1-3-3-3-3-3-3-3-3-3-3-3-3-3-3-3-3-|

Then:

Verse
Pre-Chorus
Chorus

Interlude:

e|-------------------------------------------------------------|
B|-------------------------------------------------------------|
G|-5-5-5-5-7-7-7-7-9-9-9-9-101010-5-5-5-5-7-7-7-7-9-9-9-9-10-9-|
D|-5-5-5-5-7-7-7-7-9-9-9-9-101010-5-5-5-5-7-7-7-7-9-9-9-9-8--9-|x2
A|-3-3-3-3-5-5-5-5-7-7-7-7-8-8-8--3-3-3-3-5-5-5-5-7-7-7-7-8--7-|
E|-------------------------------------------------------------|

e|------------------------------------------------------------|
B|------------------------------------------------------------|
G|-5-5-5-5-7-7-7-7-5-5-5-5-9-9-9-5-5-5-5-7-7-7-7-9-9-9-9-10-9-|
D|-5-5-5-5-7-7-7-7-5-5-5-5-9-9-9-5-5-5-5-7-7-7-7-9-9-9-9-8--9-|x2
A|-3-3-3-3-5-5-5-5-3-3-3-3-7-7-7-3-3-3-3-5-5-5-5-7-7-7-7-8--7-|
E|------------------------------------------------------------|

Then:

Verse
Pre-Chorus
Chorus
Interlude

End on:

e|---|
B|---|
G|-5-|
D|-5-|
A|-3-|
E|---|

=======================================================================
Related for Natalie Youre Really Not That Cool tab