Song name
# A B C D E F G H I J K L M N O P Q R S T U V W X Y Z

Frankenstein Drag Queens From Planet 13 - Galactic Chicken Shit tab

Solo - play 2 times
e|------7------7-----7-----7-----7--------------10b-10b-10b-10b-10b-10-|
B|-10b----10b---10b----10b---10b---10b-10b-10b-------------------------|
G|---------------------------------------------------------------------|
D|---------------------------------------------------------------------|
A|---------------------------------------------------------------------|
E|---------------------------------------------------------------------|

e|----------------------|
B|-10b------------------|
G|----------------------|
D|----------------------|
A|----------------------|
E|----------------------|


Verse - play 2 times
e|-------------------------------------------------------|
B|-------------------------------------------------------|
G|-------------------------------------------------------|
D|-------------------------------------------------------|
A|-2-2---2-2---2-2---2--2--2---2-2-2-2-2-5-5-5-5-5-5-5-5-|
E|-0-0---0-0---0-0---0--0--0---0-0-0-0-0-3-3-3-3-3-3-3-3-|


Chorus - play 4 times
e|---------------------|
B|---------------------|
G|---------------------|
D|---------------------|
A|-2(x7)-5--5-7--7-7-7-|
E|-0(x7)-3--3-5--5-5-5-|


Verse - play 2 times
e|-------------------------------------------------------|
B|-------------------------------------------------------|
G|-------------------------------------------------------|
D|-------------------------------------------------------|
A|-2-2---2-2---2-2---2--2--2---2-2-2-2-2-5-5-5-5-5-5-5-5-|
E|-0-0---0-0---0-0---0--0--0---0-0-0-0-0-3-3-3-3-3-3-3-3-|


Chorus - play 4 times
e|---------------------|
B|---------------------|
G|---------------------|
D|---------------------|
A|-2(x7)-5--5-7--7-7-7-|
E|-0(x7)-3--3-5--5-5-5-|


Solo
e|------7------7------7------7------7-|
B|-10b----10b----10b----10b----10b----|
G|------------------------------------|
D|------------------------------------|
A|------------------------------------|
E|------------------------------------|

e|------7------7------7------7----------|
B|-10b----10b----10b----10b----10b-10p8-|
G|--------------------------------------|
D|--------------------------------------|
A|--------------------------------------|
E|--------------------------------------|

e|----------------------------------|
B|-15b--15-12-----------------------|
G|------------14b--14-12-14b--12----|
D|-------------------------------14-|
A|----------------------------------|
E|----------------------------------|

e|------------------------------------------------------|
B|-10b----10b----10b----10b----10b----10b----10b----10b-|
G|------------------------------------------------------|
D|------------------------------------------------------|
A|------------------------------------------------------|
E|------------------------------------------------------|


Chorus - play 4 times
e|---------------------|
B|---------------------|
G|---------------------|
D|---------------------|
A|-2(x7)-5--5-7--7-7-7-|
E|-0(x7)-3--3-5--5-5-5-|

End
Tap to rate this tab
# A B C D E F G H I J K L M N O P Q R S T U V W X Y Z