Song name
# A B C D E F G H I J K L M N O P Q R S T U V W X Y Z

Frankenstein Drag Queens From Planet 13 - Rambo tab

Intro play 3 times
e|---------------------------------------|
B|---------------------------------------|
G|---------------------------------------|
D|---------------------------------------|
A|-2(x16)--------------------------------|
E|--------0(x8)-2(x8)--------------------|

e|---------------------------------------|
B|---------------------------------------|
G|---------------------------------------|
D|---------------------------------------|
A|-2(x16)-2~---4~------------------------|
E|--------0~---2~------------------------|

play 2 times
e|---------------------------------------|
B|---------------------------------------|
G|---------------------------------------|
D|-4(x17)--------------------------------|
A|-2(x17)-2(x7)-4(x8)--------------------|
E|--------0(x7)-2(x8)--------------------|

Verse play 2 times
e|---------------------------------------|
B|---------------------------------------|
G|---------------------------------------|
D|---------------------------------------|
A|-2(x16)--------------------------------|
E|--------0(x8)-2(x8)--------------------|

play 2 times
e|---------------------------------------|
B|---------------------------------------|
G|---------------------------------------|
D|-4(x17)--------------------------------|
A|-2(x17)-2(x7)-4(x8)--------------------|
E|--------0(x7)-2(x8)--------------------|

Chorus play 2 times
e|---------------------------------------|
B|---------------------------------------|
G|---------------------------------------|
D|-4(x17)--------------------------------|
A|-2(x17)-2(x7)-4(x8)--------------------|
E|--------0(x7)-2(x8)--------------------|

Solo play 2 times
e------------------|
B------------------|
G--4~-4------------|
D-------2~-4~------|
A------------------|
E------------------|

Verse play 2 times
e|---------------------------------------|
B|---------------------------------------|
G|---------------------------------------|
D|-4(x17)--------------------------------|
A|-2(x17)-2(x7)-4(x8)--------------------|
E|--------0(x7)-2(x8)--------------------|

Chorus play 2 times
e|---------------------------------------|
B|---------------------------------------|
G|---------------------------------------|
D|-4(x17)--------------------------------|
A|-2(x17)-2(x7)-4(x8)--------------------|
E|--------0(x7)-2(x8)--------------------|

Solo play 2 times
e|-7---7---7---7---7---------------------|
B|-10b-10b-10b-10b-10b---5-----7---------|
G|-----------------------7b~---9b~-------|
D|---------------------------------------|
A|---------------------------------------|
E|---------------------------------------|

play 3 times
e|---------------------------------------|
B|---------------------------------------|
G|---------------------------------------|
D|---------------------------------------|
A|-2(x16)--------------------------------|
E|--------0(x8)-2(x8)--------------------|

e|---------------------------------------|
B|---------------------------------------|
G|---------------------------------------|
D|---------------------------------------|
A|-2(x16)-2~---4~------------------------|
E|--------0~---2~------------------------|

Chorus play 2 times
e|---------------------------------------|
B|---------------------------------------|
G|---------------------------------------|
D|-4(x17)--------------------------------|
A|-2(x17)-2(x7)-4(x8)--------------------|
E|--------0(x7)-2(x8)--------------------|

e------------------|
B------------------|
G--4~-4------------|
D-------2~-4~------|
A------------------|
E------------------|

e|------7-7------7-7------7----------------|
B|-10b------10b------10b----10b--5-----7---|
G|-------------------------------7b~---9b~-|
D|-----------------------------------------|
A|-----------------------------------------|
E|-----------------------------------------|

e-7----------------|
B-10b--------------|
G------------------|
D------------------|
A------------------|
E------------------|

End
Tap to rate this tab
 
# A B C D E F G H I J K L M N O P Q R S T U V W X Y Z