Song name
# A B C D E F G H I J K L M N O P Q R S T U V W X Y Z

Frankenstein Drag Queens From Planet 13 - Rambo tab

Frankenstein Drag Queens From Planet 13 - Rambo


e:----------------|----------------|		
b:----------------|----------------|		
g:4444444444444444|----------------|		
d:4444444444444444|2222222244444444|		
a:2222222222222222|2222222244444444|		
E:----------------|0000000022222222|	x3	
pm................ ................


e:----------------|----------------|		
b:----------------|----------------|		
g:4444444444444444|----------------|		
d:4444444444444444|2-------4-------|		
a:2222222222222222|2-------4-------|		
E:----------------|0-------2-------|	x1			
pm................


e:----------------|----------------|		
b:----------------|----------------|		
g:4444444444444444|----------------|		
d:4444444444444444|2222222244444444|		
a:2222222222222222|2222222244444444|		
E:----------------|0000000022222222|	x2


e:----------------|----------------|		
b:----------------|----------------|		
g:4444444444444444|----------------|		
d:4444444444444444|2222222244444444|		
a:2222222222222222|2222222244444444|		
E:----------------|0000000022222222|	
pm................ ................	x2


e:----------------|----------------|		
b:----------------|----------------|		
g:4444444444444444|----------------|		
d:4444444444444444|2222222244444444|		
a:2222222222222222|2222222244444444|		
E:----------------|0000000022222222|	x4


e:----------------|----------------|
b:----------------|----------------|
g:----------------|----------------|
d:9~~~~~~~~~~~~~9-|----------------|
a:----------------|7-------9-------|
E:----------------|----------------|	x2


e:----------------|----------------|		
b:----------------|----------------|		
g:4444444444444444|----------------|		
d:4444444444444444|2222222244444444|		
a:2222222222222222|2222222244444444|		
E:----------------|0000000022222222|	x4


e:----------------|----------------|
b:12^-12^-----12^-|----------------|
g:----------------|--------11^-----|
d:----------------|14^-------------|
a:----------------|----------------|
E:----------------|----------------|	x2


e:----------------|----------------|		
b:----------------|----------------|		
g:4444444444444444|----------------|		
d:4444444444444444|2222222244444444|		
a:2222222222222222|2222222244444444|		
E:----------------|0000000022222222|	x3
pm................ ................


e:----------------|----------------|		
b:----------------|----------------|		
g:4444444444444444|----------------|		

d:4444444444444444|2-------4-------|		
a:2222222222222222|2-------4-------|		
E:----------------|0-------2-------|	x1			
pm................


e:----------------|----------------|		
b:----------------|----------------|		
g:4444444444444444|----------------|		
d:4444444444444444|2222222244444444|		
a:2222222222222222|2222222244444444|		
E:----------------|0000000022222222|	x3


e:----------------|----------------|----------------|----------------||
b:----------------|----------------|----------------|----------------||
g:4444444444444444|----------------|----------------|--------4-------||
d:4444444444444444|2222222244444444|4444444444444444|444444444-------||
a:2222222222222222|2222222244444444|4444444444444444|444444442-------||
E:----------------|0000000022222222|2222222222222222|22222222--------||
Tap to rate this tab
# A B C D E F G H I J K L M N O P Q R S T U V W X Y Z