Song name
# A B C D E F G H I J K L M N O P Q R S T U V W X Y Z

Frankenstein Drag Queens From Planet 13 - Shes A Man tab

FRANKENSTEIN DRAG QUEENS FROM PLANET 13-SHE'S A MAN
Tabbed By Ben H (PunkAsPhuck)

e|----------------------------------------------------------------------|
B|----------------------------------------------------------------------|
G|----------------------------------------------------------------------|
D|11-11-------------11-11-------------11-11-------------11-11-11-13-11--|
A|9--9-11-9-9-9-9-9-9--9-11-9-9-9-9-9-9--9-11-9-9-9-9-9-9--9--9--11-9---|
E|-----9--7-7-7-7-7------9--7-7-7-7-7------9--7-7-7-7-7-----------------|

Chorus
e|----------------------------------------------------------------|
B|----------------------------------------------------------------|
G|----------------------------------------------------------------|
D|------8-6-4-----------8-6-4-----------8-6-4-----------8-6-4-----|
A|4-6-8-6-4-2-----4-6-8-6-4-2-----4-6-8-6-4-2-----4-6-8-6-4-2-----|
E|2-4-6-----------2-4-6-----------2-4-6-----------2-4-6-----------|

Solo
e|----------------18-18-16--14----------------------18-18-16--14--|
B|14--14--14--14--------------14--14--14--14--14--------------14--|
G|----------------------------------------------------------------|
D|----------------------------------------------------------------|
a|----------------------------------------------------------------|
E|----------------------------------------------------------------|

e|----------------18-18-16--14------------------------------------|
B|14--14--14--14--------------14--14--14--14--14--14--------------|
G|----------------------------------------------------------------|
D|----------------------------------------------------------------|
A|----------------------------------------------------------------|
E|----------------------------------------------------------------|

e|----------------18-18-16--14----------------------18-18-16--14--|
B|14--14--14--14--------------14--14--14--14--14--------------14--|
G|----------------------------------------------------------------|
D|----------------------------------------------------------------|
A|----------------------------------------------------------------|
E|----------------------------------------------------------------|

e|----------------18-18-16--14------------------------------------|
B|14--14--14--14--------------14--14--14--14--14--14--------------|
G|----------------------------------------------------------------|
D|----------------------------------------------------------------|
A|----------------------------------------------------------------|  
E|----------------------------------------------------------------|
Tap to rate this tab
 
# A B C D E F G H I J K L M N O P Q R S T U V W X Y Z