Song name
# A B C D E F G H I J K L M N O P Q R S T U V W X Y Z

Frankenstein Drag Queens From Planet 13 - I Wana Rot tab

----------------------------------------------------------------------------
			     i wana rot - frankenstein drag....13
----------------------------------------------------------------------------
Tabbed by:  ding
Email:  devilishdude22@hotmail.com

intro

e|------------------|  x4
B|------------------|
G|------------------|
D|--2-2--2-2--2-3---|
A|--2-2--2-2--2-3---|
E|--0-0--0-0--0-1---|

verses("hey,hey i want to decay" e.c.t)!

e|------------------|  listen to cd to see how many times played
B|------------------|
G|------------------|
D|--2-2--2-2--2-3---|
A|--2-2--2-2--2-3---|
E|--0-0--0-0--0-1---|

chourus( "i wana rot")

e|------------------|  x8 i think :]
B|------------------|
G|------------------|
D|--2-2--2-2--2-3---|
A|--2-2--2-2--2-3---|
E|--0-0--0-0--0-1---|

pre-chourus("hey motherfucker, put me 6 feet under...")

e|------------------|  x4
B|------------------|
G|------------------|
D|-2-5-4-2----------|
A|-2-5-4-2----------|
E|-0-3-2-0----------|

well thats it.Its really easy but fun to play, im pretty sure this is correct listen to 
to work out the rythm. thanx byeeeeeeeeeee ghouls
the song is basically the same all the way through.
Tap to rate this tab
# A B C D E F G H I J K L M N O P Q R S T U V W X Y Z