Song name
# A B C D E F G H I J K L M N O P Q R S T U V W X Y Z

Frankenstein Drag Queens From Planet 13 - Monster Monster 13 Oh Yeah tab

---------------------------------------------------------------------------------------------------
Frankenstein drag queens from planet 13 - Monster Monster 13 oh yeah!
--------------------------------------------------------------------------------------------------

Tabbed by: Bram the dude from Belgium
Email: VivaLasViolence@hotmail.com

Tuning: Standaard

Monster Monster 13 oooh yeah !!!!

e|---------------------|
B|---------------------|
G|---------------------|
D|---------------------|   The Lead plays it almost the whole song
A|---------------------|
E|----0-0-0-0-0-0-3-4--|

Ooooooooh yeah.......... Ooooooh yeah........
e|----------------|----------------|----------------|---------------|-------------|
B|----------------|----------------|----------------|---------------|-------------|
G|-8~--8-7-6--|--8~--8-7-6--|-8~--8-7-6--|--8~--8-7-6-|---8~/ 12------------------|
D|----------------|----------------|----------------|---------------|-------------|
A|----------------|----------------|----------------|---------------|-------------|
E|----------------|----------------|----------------|---------------|-------------|

Hey !!   Hey !!     Hey!!!
e|-----------------------------------------------------------------------------|
B|-----------------------------------------------------------------------------|
G|-----------------------------------------------------------------------------|
D|-----------------------------------------------------------------------------|
A|-----------------------------------------------------------------------------|
E|---XXXXXX---3---4-------------- XXXXXX---3---4-------------------------------|

Lead at the end
e|-----------------------------------------------------------------------------|
B|-----------------------------------------------------------------------------|
G|-----------------------------------------------------------------------------|
D|-3-3-3-3-3-3----6-7----------------------------------------------------------|
A|-3-3-3-3-3-3----6-7----------------------------------------------------------|
E|-1-1-1-1-1-1----4-5----------------------------------------------------------|

Rythme at the end
e|---15-16-15-16-15-16-15-16-15-16-15-16-15--| (continue until song ends)
B|-------------------------------------------|
G|-------------------------------------------|
D|-------------------------------------------|
A|-------------------------------------------|
E|-------------------------------------------|

| /  slide up
| \  slide down
| h  hammer-on
| p  pull-off
| ~  vibrato
| +  harmonic
| x  Mute note

===============================================================================
Tap to rate this tab
 
# A B C D E F G H I J K L M N O P Q R S T U V W X Y Z