Song name
# A B C D E F G H I J K L M N O P Q R S T U V W X Y Z

Frankenstein Drag Queens From Planet 13 - Devil Made Me Do It tab

Frankenstein Drag Queens From Planet 13 - The Devil Made Me Do It


VERSE:
E|----------------------------------------------------|
B|----------------------------------------------------|
G|--------------5b-5-3-5-3----------------------------|
D|----------------------------------------7b-7-5-7-5--|   x2
A|-5-5-5-7-5-----------------2-2-2-5-2----------------|
E|-3-3-3-5-3-----------------0-0-0-3-0----------------|


E|----------------------------------------------------|
B|----------------------------------------------------|
G|----------------------------------------------------|
D|----------------------------------------------------|   x2
A|-5-5-5-7-5--MUTE-----------2-2-2-5-2--MUTE----------|
E|-3-3-3-5-3--MUTE-----------0-0-0-3-0--MUTE----------|


E|--------------------------------------------------------|
B|--------------------------------------------------------|
G|--------------------------------------------------------|
D|--------------------------------------------------------|   x2
A|-5-5-5-7-5--LET-RING-------2-2-2-5-2--LET-RING----------|
E|-3-3-3-5-3--LET-RING-------0-0-0-3-0--LET-RING----------|

CHORUS:
E|---
B|---
G|---
D|---   x4
A|-5-
E|-3-

SOLO:
E|--------------5b-5-3-5-3-------------------------------------------------5--5-3-5-3----------------------------|
B|-------------------------------------------------------------------------5--5-3-5-3----------------------------|
G|-------------------------------------------------------------------------5--5-3-5-3-----------------7--7--7--7-|
D|----------------------------------------------------------------------------------------------------7--7--7--7-|
A|-5-5-5-7-5------------------2-2-2-5-2----7b-7-5-53575357----5-5-5-7-5------------------2-2-2-5-2----7--7--7--7-|
E|-3-3-3-5-3------------------0-0-0-2-0-----------------------3-3-3-5-3------------------0-0-0-3-0---------------|
Tap to rate this tab
 
# A B C D E F G H I J K L M N O P Q R S T U V W X Y Z