Song name
# A B C D E F G H I J K L M N O P Q R S T U V W X Y Z

Frankenstein Drag Queens From Planet 13 - Ranbo tab

     Intro play 3 times
e|---------------------------------------|
B|---------------------------------------|
G|---------------------------------------|
D|----------------14-14-14-14------------|
A|9-9-9-9-9-9-9-9-14-14-14-14-16-16-16-16|
E|7-7-7-7-7-7-7-7-0--0--0--0--14-14-14-14|

End of Intro
e|---------------------------------------|
B|---------------------------------------|
G|---------------------------------------|
D|----------------14~--------------------|
A|9-9-9-9-9-9-9-9-14~----------16~-------|
E|7-7-7-7-7-7-7-7-0~-----------14~-------|

Intro 2 (play 2ce)

e|---------------------------------------|
B|---------------------------------------|
G|---------------------------------------|
D|----------------14-14-14-14------------|
A|9-9-9-9-9-9-9-9-14-14-14-14-16-16-16-16|
E|7-7-7-7-7-7-7-7-0--0--0--0--14-14-14-14|

Verse
(play four times)
e|---------------------------------------|
B|---------------------------------------|
G|---------------------------------------|
D|---------------------------------------|
A|9-9-9-9-9-9-9-9-2--2--2--2--4--4--4--4-|
E|7-7-7-7-7-7-7-7-0--0--0--0--2--2--2--2-|

Chorus(twice)

Rythem -
e|---------------------------------------|
B|---------------------------------------|
G|---------------------------------------|
D|----------------14-14-14-14------------|
A|9-9-9-9-9-9-9-9-14-14-14-14-16-16-16-16|
E|7-7-7-7-7-7-7-7-0--0--0--0--14-14-14-14|

Lead - ( you can hear this in the back and after the chorus is played twice you hear it louder)
e-------------------|
B-------------------|
G-------------------|
D----9b---14b---16--|b
A-------------------|
E-------------------|
(played 4 times twice through the chorus and twice after the chorus)

Verse
(play twice)
e|---------------------------------------|
B|---------------------------------------|
G|---------------------------------------|
D|---------------------------------------|
A|9-9-9-9-9-9-9-9-2--2--2--2--4--4--4--4-|
E|7-7-7-7-7-7-7-7-0--0--0--0--2--2--2--2-|

Chorus(twice)

Rythem -
e|---------------------------------------|
B|---------------------------------------|
G|---------------------------------------|
D|----------------14-14-14-14------------|
A|9-9-9-9-9-9-9-9-14-14-14-14-16-16-16-16|
E|7-7-7-7-7-7-7-7-0--0--0--0--14-14-14-14|

Lead - (play twice with rythem)
e-------------------|
B-------------------|
G-------------------|
D----9b---14b---16--|b
A-------------------|
E-------------------|

Couldn't get the solo but the backing is

e|---------------------------------------|
B|---------------------------------------|
G|---------------------------------------|
D|----------------14-14-14-14------------|
A|9-9-9-9-9-9-9-9-14-14-14-14-16-16-16-16|
E|7-7-7-7-7-7-7-7-0--0--0--0--14-14-14-14|
(played three times)

e|---------------------------------------|
B|---------------------------------------|
G|---------------------------------------|
D|----------------14~--------------------|
A|9-9-9-9-9-9-9-9-14~----------16~-------|
E|7-7-7-7-7-7-7-7-0~-----------14~-------|
(played once)

Chorus(twice)

Rythem -
e|---------------------------------------|
B|---------------------------------------|
G|---------------------------------------|
D|----------------14-14-14-14------------|
A|9-9-9-9-9-9-9-9-14-14-14-14-16-16-16-16|
E|7-7-7-7-7-7-7-7-0--0--0--0--14-14-14-14|

Lead - (play twice with rythem)
e-------------------|
B-------------------|
G-------------------|
D----9b---14b---16--|b
A-------------------|
E-------------------|


End

Thanks email me with your comments at bobyjones2004@hotmail.com
Tap to rate this tab
# A B C D E F G H I J K L M N O P Q R S T U V W X Y Z