Song name
# A B C D E F G H I J K L M N O P Q R S T U V W X Y Z

Frankenstein Drag Queens From Planet 13 - Motel Killafornia tab

Standard Tuning:EADGBE (low to high)

Intro:                     Verse:

e|-----------------------|--------------------------
B|-----------------------|--------------------------
G|-----------------------|--------------------------
D|-----------------------|--------------------------
A|-2-2-2-222xxxxxxxx-----|2---------x/2---------x/2-
E|-0-0-0-000xxxxxxxx-(x4)|0---------x/0---------x/0-
                          *let ring   **pick slide down & let ring

e|----------------------------|
B|----------------------------|
G|----------------------------|
D|----------------------------|
A|-2-7/9---7/9---7/9-5544-----|
E|-0-5/7-0-5/7-0-5/7-3322-(x4)|

2nd Verse

e|-----------------------|--------------------------
B|-----------------------|--------------------------
G|-----------------------|--------------------------
D|-----------------------|--------------------------
A|-2-2-2-222xxxxxxxx-----|2---------x/2---------x/2-
E|-0-0-0-000xxxxxxxx-(x4)|0---------x/0---------x/0-
                          *let ring   **pick slide down & let ring

During Solo: (don't know solo sorry)

e|-----------------------|
B|-----------------------|
G|-----------------------|
D|-----------------------|
A|-2-2-2-222xxxxxxxx-----|
E|-0-0-0-000xxxxxxxx-----|


This Is The Basis Of The Song Very Simple. Listen To Get Right Sequences
Enjoy =)


Tap to rate this tab
 
# A B C D E F G H I J K L M N O P Q R S T U V W X Y Z