Guitaretab - guitar tabs
Song name
# A B C D E F G H I J K L M N O P Q R S T U V W X Y Z

Frankie J - More Than Words tab

More Than Words - Michael Chapdelaine
Tune down 1/2 Step - D#G#C#F#A#D#
BPM = 95
Refer to my profile about requesting tabs


      E  E  E  Q    E  E  E     E  E  E  E  E  Q    E
D#||--3--3-----3----3-----3--|--L--3--------3--3-------|
A#||--3--3--x--3-------x--3--|--L-----3-----3--1----1--|
F#||--0--0--x--0-------x--0--|--L-----0-----0--0-------|
C#||--------x----------x-----|--------x----------------|
G#||-----------2----------3--|--L-----x--3-------------|
D#||--3----------------------|-------------------------|


                             Palm Nail Atk
  E  E  E  E  E  E  E  E     E             E  E  Q    Q    E
--------------3--0-----3--|--L----------------0--3----2----3--|
--------x-----1--1--x-----|-------------------0--3----3----3--|
--------x-----------x--0--|--L-------------------0---------0--|
-----2-----2--------x-----|----------------------0------------|
--0--------------------3--|--L-------------0------------------|
--------------------------|----------------x------------------|


  E.  S E  Q    E  E  E     E  E  Q    E  Q    E
------3----3----3--3--3--|--L--3-------3--3-------|
------3-x--3----3--3--3--|--L--3--3----3--1----1--|
------0-x--0-------0--0--|--L-----0----0--0-------|
--------x----------------|--------x---------------|
-----------2----------3--|--L-----x---------------|
--3----------------------|------------------------|


                                Palm Nail Atk
  E    S S E  E  E  E  E  E     E             E  Q    Q    Q
-----------------3--0-----3--|--L-------------0--3----2---------|
---------x-------1--1--x--3--|--L-------------0--3----3----3----|
---------x-------0--0--x--0--|--L-------------0--0---------0----|
-----0g2---2--2--------x-----|-------------------0--------------|
--0--------------------------|----------------------------------|
-----------------------------|----------------x-----------------|


              ^
  E.  S E  E  E  E  E  E       Q    E  E  E  E  E  E
------3-------------0--0--|---------------3--3-----0--|
------3-x-----0--3--------|--3g5----x--3--3--3--0--0--|
--------x--0--0-----------|---------0-----0--0--x--x--|
--------x-----------------|---------x-----------x--x--|
--------------2-----------|----3----------------------|
--3-----------------------|---------------------------|


  Q    E  E  E  E  E  E     E    E  E  Q    E  E  E
-------0-----3--3--x-----|----------5----------------|
-------x-----3--3--0--3--|-----3g5--x--3----1--x--1--|
-------x--0--0--0--x-----|----------x----------x-----|
-------------------------|----------x----------x-----|
--0----------0-----------|--3------------------------|
-------------------------|---------------------------|


              ^
  E  E  E  E  E  E  E  E       Q      E  E  E  E  E  E
--------0-----------0-----|-----------------3--3-----0--|
-----3--x-----0--3--x--0--|--3g5----3g5--3--3--3--0--0--|
--------x--0--0-----x-----|-----------x-----0--0--x--x--|
--------x-----------x-----|-----------x-----------x--x--|
--------------2-----------|----3------------------------|
--3-----------------------|-----------------------------|


  Q    E  E  E  E  E  E     E    E  E  Q     E  E   E
-------0-----3--3--x-----|----------0------------------|
-------0--3--3--3--0--3--|-----3g5--x--3S-------1p--0--|
-------x-----0--0--x-----|----------x--------x---------|
-------x-----------------|----------x--------x---------|
--0----------0-----------|--3--------------------------|
-------------------------|-----------------------------|


       ^
  Q    E  E  E  E  E    E     Q    E  S  S Q    E    E
---------------------------|----------------------------|
----------------0--x--0g1--|-------x--1p-0------x--1g3--|
-------0-----0--0--x----0--|-------x--0----2----x----0--|
-------4--4--------x-------|-------x------------x-------|
-------2-------------------|--0-------------------------|
--0------------------------|----------------------------|


  Q      E  Q    E  E  E     E  E  E  Q    E  E  S  S
--------------------------|----------------------3p-2h-|
-------3g5--3----x--------|-----0--x--0----3--x--------|
---------x-------7--5--4--|-----0--x--0-------x--------|
---------x-------x--------|--------x----------x--------|
--------------------------|----------------------------|
--3-----------------------|--3--------2----------------|


  Q    E  E    E    E  E    E     E  E  E  Q.     E  E
--3----------------------------|---------------------0--|
-------x-----3g5--3g5--x--3g5--|--L-----x--1------x-----|
-------x--0------------x----4--|--L-----x--2------x-----|
-------x---------------x-------|-----0--x---------x-----|
-------------------------------|------------------------|
--0----------------------------|------------------------|


    ^                                  ^
    Q    E  E  E  E  E  E     E  E  E  Q    E  E  E
--0g2-------0-----1--3--1--|-----1-----1----3-----1h--|
----1----x-----------x-----|-----0--x--0----0--x------|
----2----x-----------x-----|-----0--x--0-------x------|
----0----------0-----------|--------x----------x------|
---------------------------|-----------2--------------|
---------------------------|--3-----------------------|


  E  E  E  E    E  E    E   E     E  E   E  E  Q    E  E
-----0-------------------------|---------0-----------------|
--------x-----1g3--1S--(5)--8--|-----L\--x--3-------1--1h--|
--------x-------0--------------|---------x----------x------|
--------x--0-------------------|---------x----------x------|
--3----------------------------|--3------------3-----------|
-------------------------------|---------------------------|


                                     Body hit
                                                 ^
  E  E  E  E  E  E  E  E     E  Q    E        E  E  E  E
--------------------------|----------x--------x--x--------|
-----3--x-----0--0--x--3--|-----5-------------x--x--5--5--|
--------x-----0-----x--4--|-----4----------------x--4--4--|
--------x-----------x-----|----------------------x--------|
-----------3--------------|-------------------------------|
--3-----------------------|--0----------------------------|


             ^           ^        ^
  Q.     E   H           H        Q.     E     Q    E  E  E  E  E    E
----------------------|---------------------|----------------------3g5--|
--5------L\--1--------|--7--------3------0--|-------x-----0--3--x-------|
--4------L\--2--------|--5--------0---------|-------x-----0-----x-------|
-------------2--------|--7--------5---------|-------0-----------x-------|
--0-------------------|---------------------|----------2----------------|
----------------------|---------------------|--3------------------------|


                                             Body Hit
                                ^
  Q    E  E  Q    E  E     Q    E  E    E    E      E    E
----------3----------2--|------------------------------3g5--|
-------x----------x-----|-------2-----2g3--2g3--------------|
-------x----------x-----|-------2-------2----2--------------|
-------x----------x-----|----------4------------------------|
------------------------|--2----2-------------------x-------|
--3----------2----------|---------------------------x-------|


  E  E  E  E  E  E   E  E     Q    E  E    E    E  E    E
-----3-----5-----5s--7--3--|-------------------------------|
--------x------------x-----|-------x-----3g5--3g5--x--3g5--|
--------x------------x-----|-------x--0------------x----4--|
--------x------------------|-------x---------------x-------|
--------------2------------|--3----------------------------|
--0------------------------|-------------------------------|


  Q    E  E  E  E  E  S  S    Q    E  E    E    E  E  E
---------------------------|--------------------------0--|
-------5--3-----1--x--5p-3-|--5----x-----3g5--3g5--x-----|
-------x--------0--x-------|-------x--4---------4--x-----|
-------x-----------x-------|-------x---------------x-----|
--3----------0-------------|-----------------------------|
---------------------------|--0--------------------------|


    ^                                    ^
    Q    E  E  E   Q    E     Q    E  E  E  E  E    E
--0g2----2--2--0-----------|----------------------3g5--|
----1----1--1--0--/5----3--|-------x-----0--3--x-------|
----2----2--2--0--/4----5--|-------x--0--0-----x-------|
----0----0--0--------------|-------x-----------x-------|
---------------------------|-------------2-------------|
---------------------------|--3------------------------|


  Q    E    E  Q    E  E      E  E  E  E    E    E  E    E
----------5g7--------------|------------------------0--3g5--|
-------x------------0--1h--|-----3--x-----1g3--1g3--x-------|
-------x------------0--0---|--------x--0------------x-------|
-------x------------x------|--------x---------------x-------|
---------------3-----------|--------------------------------|
--3------------------------|--2-------------2---------------|

[ Tab from: http://www.guitaretab.com/f/frankie-j/140798.html ]
  E  E  E  Q    E   E  E     Q    E  E    E    E  E    E
-----3-----5----5S--7--3--|-------0-----------------------|
--------x--2----2---------|-------0-----3g5--3g5--x--3g5--|
--------x--2--------------|-------0--0------------x-------|
--------x-----------------|-----------------------x-------|
-----------2--------------|--3----------------------------|
--0-----------------------|-------------------------------|


                                                      ^
  Q    E  E  E  E  E  E     Q    E  E    E    E  E    E
-------------------------|-------0------------------0g2--|
-------x--3-----1--x-----|--5----0-----3g5--3g5--x----1--|
-------x--0-----0--x--4--|--4----x--4------------x----2--|
-------x-----------x-----|-------x---------------x----0--|
--3----------------------|-------------------------------|
-------------0-----------|--0----------------------------|


  E  E  Q    E  Q      E     Q    E  E  E  E  E  E
--L--2--2----2--2----2g3--|--------------------------|
--L--1--1----1--1---------|-------0--0--------0--1h--|
--L--2--2----2--2---------|-------x--0-----2--x--0---|
--L--0--0----0--0---------|-------x-----------x------|
--------------------------|-------------2------------|
--------------------------|--3-----------------------|


  E  E   E   E  E  E  E    E     Q     E   E  E  E  E  E
----------------3--3----------|---------------3--3--------|
-----0--(0)-----3-----1--1g3--|-------(5)--3--3-----1--3--|
---------x---2--0-----x----x--|--------x------0-----x-----|
---------x------------x----x--|--------x------------x-----|
--3-------------3-------------|--0------------------------|
------------------------------|---------------------------|


  E    E  E  E  E  Q    E     E.  S E  E  E  E  E  E
-------------------2----3--|------3-------------0-----|
-----3g5--3--1-----1----3--|------3-x--0--------0--1--|
----------x--------2----0--|------0-x--------2--x-----|
----------x-----0----------|--------x-----------x-----|
--3------------------------|--------------2-----------|
---------------------------|--3-----------------------|


  E  E  E  E  E  E  E    E     Q     E   E  E  E  E  E
--------------3--3----------|---------------3--3--------|
-----0--0-----3-----1--1g3--|-------(5)--3--3--3--1--3--|
--------x--2--0-----x----x--|--------x------------x-----|
--------x-----------x----x--|--------x------------x-----|
--3-----------3-------------|--0------------------------|
----------------------------|---------------------------|


  E    E  E  E  E  Q    E     E.  S E  E  E  E  E  E
-------------------2----3--|--------3-----------0-----|
-----3g5--3--1-----1----3--|------x----0--------0--1--|
----------x--------2----0--|------x----------2--x-----|
----------x-----0----------|------x-------------x-----|
--3------------------------|--------------2-----------|
---------------------------|--3-----------------------|


  E  E  E  E  E  E  E    E     Q     E   E  E  E  E  E
--------------3--3----------|---------------3--3--------|
-----0--0-----3-----1--1g3--|-------(5)--3--3--3--1--3--|
--------x--2--0-----x----x--|--------x------------x-----|
--------x-----------x----x--|--------x------------x-----|
--3-----------3-------------|--0------------------------|
----------------------------|---------------------------|


  E    E  E  E  E  Q    E
-------------------2----3--|
-----3g5--3--1-----1----3--|
----------x--------2----0--|
----------x-----0----------|
--3------------------------|
---------------------------|


    |3| |3| |3| |3| |3| |3|     |3| |3| |3| |3| |3| |3|
  S S T T S S T T S S T T S S S S T T S S T T S S T T S S
--L-3-3---3-3-3---3-3-3---3-3---5-5---5-5-5---5-5-5---5-5-|
--L-------------3---------------------------3-------------|
--L-----0---------------0-----------2---------------2-----|
----------------------------------------------------------|
----------------------------------------------------------|
--3---------------------------2---------------------------|


    |3| |3| |3| |3| |3| |3| |3| |3| |3| |3| |3| |3| |3| |3|
  S S T T S S T T S S T T S S T T S S T T S S T T S S T T S S
--L-7-7---7-7-7---8-8-8---7-7-7---4-4-4---4-4-4---4-4-4---4-4-|
----------------8-------------------------------5-------------|
--------7---------------7---------------4---------------4-----|
--------------------------------------------------------------|
--7-----------------------------------------------------------|
--------------------------------0-----------------------------|


                                       ^
    |3| |3| |3| |3| |3| |3| |3| 3 3
  S S T T S S T T S S T T S S T T Q    S S T  T  T  T  T  T
--L-0-0---0-3-3---3-0-0---0-3-3---3----3---2h-3p-2h-3p-2h-3-|
----------------1---------------1------3--------------------|
--------0---------------0--------------0--------------------|
---------------------------------------0--------------------|
--0---------------------------------------------------------|
------------------------------------------------------------|


  S S  T  T  T  T  T  T  T  T  T  T  T  T  T  T  T  T  T  T  T  T  T  T  T  T  T
--0-2h-5p-3p-2p-0h-5p-3p-2p-0h-5p-3p-2p-0h-5p-3p-2p-0h-5p-3p-2p-0h-5p-3p-2p-0h-5-|
---------------------------------------------------------------------------------|
---------------------------------------------------------------------------------|
---------------------------------------------------------------------------------|
---------------------------------------------------------------------------------|
---------------------------------------------------------------------------------|


  T             T             T             T             T             T
  T  T  T  T  T T  T  T  T  T X  X  X  X  X X  X  X  X  X X  X  X  X  X X  X  X
--7p-5p-3p-2p-0------------------------------------------------------------------|
----------------7p-5p-3p-2p-0----------------------------------------------------|
------------------------------7p-5p-3p-2p-0--------------------------------------|
--------------------------------------------7p-5p-3p-2p-0------------------------|
----------------------------------------------------------7p-5p-3p-2p-0----------|
------------------------------------------------------------------------7p-5p-3--|p


               |--3--|     |-3-| |-3-| |-3-| |-3-| |-3-| |-3-| |-3-| |-3-|
  H.           E  E  E     S S S S S S S S S S S S S S S S S S S S S S S S
--L------------0--2--3--|----3-3-3-3-3-3-3-3-3-3-3-3-3-3-3-3-3-3-3-3-3-3-3-|
--L---------------------|--------------3-----------------------3-----------|
--L---------------------|--------0-----------0-----------0-----------0-----|
--L---------------------|--------------------------------------------------|
--L---------------------|--------------------------3-----------------------|
--L---------------------|--3-----------------------------------------------|


  |-3-| |-3-| |-3-| |-3-| |-3-| |-3-| |-3-| |-3-|
  S S S S S S S S S S S S S S S S S S S S S S S S
--3-3-3-3-3-3-3-3-3-3-3-3-3-3-3-3-3-3-3-3-3-3-3-3-|
--------------3-----------------------3-----------|
--------0-----------0-----------0-----------0-----|
--------------------------------------------------|
--2-----------------------1-----------------------|
--------------------------------------------------|


  ^
  E   E  S  S  S  S  S  S  S  S  S  S  E
--3S--5--3h-5p-3h-5p-3h-5p-3h-5p-3h-5p-3--|
--1---------------------------------------|
--0---------------------------------------|
--0---------------------------------------|
--0---------------------------------------|
------------------------------------------|


                                              ^
  S  S  S  S  S  S  S  S  S  S  S  S  Q       W
-------------------------------------------|--3----------------||
--0h-1p-0h-1p-0h-1p-0h-1p-0h-1p-0h-1p-0----|--3----------------||
--------------0-----0-----0-----0-----0----|--0----------------||
--------------0-----0-----0-----0-----0----|--0----------------||
-------------------------------------------|--0----------------||
--3----------------------------------------|--3----------------||


Duration Legend
---------------
W - whole
H - half
Q - quarter
E - 8th
S - 16th
T - 32nd
X - 64th
. - note dotted
|-n-|  - n-tuplets


Tablature Legend
----------------
L - tied note
x - dead note
g - grace note
(n) - ghost note
> - accentuded note
NH - natural harmonic
AH - artificial harmonic
TH - tapped harmonic
SH - semi harmonic
PH - pitch harmonic
h - hammer on
p - pull off
b - bend
br - bendRelease
pb - preBend
pbr - preBendRelease
brb - bendReleaseBend
\n/ - tremolo bar dip
\n - tremolo bar dive
-/n - tremolo bar Release up
/n\ - tremolo bar inverted dip
/n - tremolo bar return
-\n - tremolo bar Release down
S - shift slide
s - legato slide
/ -  slide into from below or out of upwards
\ -  slide into from above or out of downwards
~ - vibrato
W - wide vibrato
tr - trill
TP - tremolo picking
T - tapping
S - slap
P - pop
< - fade in
^ - brush up
v - brush down
Related for More Than Words tab
Advertisement will be closed in 10 seconds