Song name
# A B C D E F G H I J K L M N O P Q R S T U V W X Y Z

Frankie J - Dont Wanna Try Acoustic tab

8 count for the whole song, but the g and D/F share the 8 count so that means it's a four count.

Intro. C7              D                Em-let ring

E----------------------------0-0--------0------------------------------------|
B--------3-----3-----------3-----3------0------------------------------------|
G------0---0-----0-------2---------2----0------------------------------------|
D----2-------2-----2---0-------------0--2------------------------------------|
A--3------------------------------------2------------------------------------|
E---------------------------------------0------------------------------------|

verses.1.2.
E----------------------------0-0--------------------------------------------|
B--------3-----3-----------3-----3-----------0----0-------------------------|
G------0---0-----0-------2---------2--------0--0---0------------------------|
D----2-------2-----2---0-------------0----2-----2---------------------------|
A--3------------------------------------2-----------------------------------|
E---------------------------------------------------------------------------|

  D/F       G
E---------------|
B-------0-----0-|
G-----2------0--|
D---0-------0---|
A---------------|
E-2-------3-----|


Chorus  C7   D    E   D/F
E-------0----0----0---3------3-|
B-------3----3----0---3------3-|
G-------0----2----0---2------0-|
D-------2----0----2---0------0-|
A-------3---------2---0------2-|
E-------0---------0---2------3-|


I believe both the chorus and the verses are repeteated four times
Tap to rate this tab
# A B C D E F G H I J K L M N O P Q R S T U V W X Y Z