Song name
# A B C D E F G H I J K L M N O P Q R S T U V W X Y Z

Frankie J - How To Deal Acoustic tab

Help us improve GuitareTab! Take a short survey!
Frankie J - How to deal(Acoustic)

Gtr1
E|----2--------0-----5----------------------------------------0-|
B|-----------3------------3---------3-3/5--7----0----3--2--3----|
G|---------2-----------------0----------------------------------|
D|----0------------------------0--------------------------------|
A|------------------------------------------------------0-------|
E|------------------------3---------------------3---------------|


E|----2-----------9h10--9---------------------------------------|
B|-------------------------10----6/7--6/7-----------------------|
G|--------------------------------------------------------------|
D|----0---------------------------------------------------------|
A|--------------------------------------------------------------|
E|--------------------------------------------------------------|
           repeat throughout the song



  Gtr2 Chords     through out song just figure out the strumming 

    D         B          G         A   
|---2---------2----------3---------0---------------------|
|---3---------4----------3---------2---------------------|
|---2---------4----------0---------2---------------------|
|---0---------4----------0---------2---------------------|
|-------------2----------2---------0---------------------|
|-------------2----------3-------------------------------|

Related for How To Deal Acoustic tab