Guitaretab - guitar tabs
Song name
# A B C D E F G H I J K L M N O P Q R S T U V W X Y Z

Frankie J - Dont Wanna Try Acoustic tab

Song: Don't Wanna Try
Artist: Frankie J
4/16/05

This acoustic version is from Sessions @AOL. The whole song is played with two guitars
but the intro only has one guitar playing. This melody is not only played in the intro
but throughout the song. I heared the song today and i figured this part out in an hour.
I'm satisfied with just figuring this part out but I might figure out the rest. The
chorus and the bridge have the chords somewhere around C D Em (the finger placement for
this picking). try and figure out the rest!
Standard Tuning
Capo on 1st fret! 
Note: strum Em from e to E (strum up). 
[ Tab from: http://www.guitaretab.com/f/frankie-j/58803.html ]
Part I
e|------------0----0---------------------------------------------|
B|----3--3---3-3-3-0---------------------------------------------|
G|---0-0--0-2---2--0---------------------------------------------|
D|--2---2--0-------2---------------------------------------------|
A|-3---------------2---------------------------------------------|
E|-----------------0---------------------------------------------|
Part II
e|------------0--------0-----------------------------------------|
B|----3--3---3-3-3----0-0---3---3--------------------------------|
G|---0-0--0-2---2----0---0---2-----------------------------------|
D|--2---2--0--------2------0---0---------------------------------|
A|-3---------------2---------------------------------------------|
E|----------------0-------2---3----------------------------------|
Related for Dont Wanna Try Acoustic tab
Advertisement will be closed in 10 seconds