Song name
# A B C D E F G H I J K L M N O P Q R S T U V W X Y Z

Frankie J - How To Deal tab

Help us improve GuitareTab! Take a short survey!
**********************
* Title: How To Deal *
* Artist: Frankie J  *
* Album: The One     *
* Track Time (3:53)  *
**********************

Tabbed By: Manilette Ann P. Fernandez "Maan"

Comments?
> E-Mail: m2_btres@yahoo.com
> Text: 09204018931 / 09164932421

**Another one of my favorite songs..this is just the intro part..Listen to the song for 
timing & plucking.

**This goes out to the Besties (Mark Aquino, Ralph Malate, Jeb Aquino), and to the Al'a 
XYZ.. :)


Tuning: Standard


Intro
e|--2------0-----5--------------0h2---------------------------------0-----------|
B|-------3---3-------3------3---------0-----0-----3---2-----2h3-----------------|
G|-----2-------2-------0------0---------0-----0---------2-------2---------------|
D|--0--------------------0----------------0-----0---------2-------2-------------|
A|----------------------------------------------------0-------------------------|
E|-------------------3----------------3-----------------------------------------|

e|--2------0--5---9h10p9---------------|
B|-------3---------------10--6s7--6s7--|
G|-----2-------------------------------|
D|--0----------------------------------|
A|-------------------------------------|
E|-------------------------------------|


Legends Used:
h - hammer on
p - pull off
s - legato slide


*********
*       *
*  End  *
*  .3.  *
*       *
*********
Related for How To Deal tab