Song name
# A B C D E F G H I J K L M N O P Q R S T U V W X Y Z

Frankie J - How Do Deal tab

Help us improve GuitareTab! Take a short survey!
             --------------------------------------------------------
			     How do i deal---Frankie J
-------------------------------------------------------------------------------
Tabbed by:errka


Tuning:standard

This is the main riff during the whole song..enjoy =)
          D             Bm7              G            A
e|----------------5------------------2---3--------3-------------5-----------|
B|--------5-----5--------3-----3---3-----------3------5-----5---------------|
G|------------7--------------2---2-----------4--4---------6--6--------------|
D|----------7--------------4---------------5------------7-------------------|
A|--------5--------------2--------------------------------------------------|
E|---------------------------------------3------------5---------------------|
          D
e|-----------------5------9-10-9--------------------------------------------|
B|--------5-----5----5-----------10---6h7--7--------------------------------|
G|------------7-------------------------------------------------------------|
D|----------7---------------------------------------------------------------|
A|--------5-----------------------------------------------------------------|
E|--------------------------------------------------------------------------|
Related for How Do Deal tab