Song name
# A B C D E F G H I J K L M N O P Q R S T U V W X Y Z

Frankie Valli - Beggin tab

The original track roughly consists of piano, bass and guitar but here is my all-guitar 
rendition. Enjoy!

These guitar parts will also work nicely for the Madcon version. Guitar 1 is the rhythm 
parts and Guitar 2 is the lead/melody parts.

Intro:
Guitar 1
e|----------------|
B|----------------|
G|-77777777777777-|
D|-77777777777777-|
A|-55555555555555-|
E|----------------|

Guitar 2
e|-55555555555555-55555555555555555555-3333333333333333333333-00000----------|
B|-55555555555555------------------------------------------------------------|
G|---------------------------------------------------------------------------|
D|---------------------------------------------------------------------------|
A|---------------------------------------------------------------------------|
E|---------------------------------------------------------------------------|
                  mmmmmmmm... put your lovin' hand out baby...    I'm beggin

Guitar 1: (strum in time to the rhythm, this is just a general pattern)
e|-------------------------------------------------------------------------|
B|-------------------------------------------------------------------------|
G|-------------------------------------------------------------------------|
D|-7--7--7--7-7-7-5-/7--7--7--7-7-7-5-/7--7--7--7-7-7-5-/7--7--7--7-7-7-5--|
A|-5--5--5--5-5-5-3-/5--5--5--5-5-5-3-/5--5--5--5-5-5-3-/5--5--5--5-5-5-3--|
E|-------------------------------------------------------------------------|

Guitar 2: (again this is just a guide, strum it how you feel and give it a funky edge 
with some scratches etc)
e|---5--5--5--5--------5--5--5--5--------5--5--5--5--------5--5--5--5--|
B|---6--6--6--6--------6--6--6--6--------6--6--6--6--------6--6--6--6--|
G|---5--5--5--5--------5--5--5--5--------5--5--5--5--------5--5--5--5--|
D|---------------------------------------------------------------------|
A|---------------------------------------------------------------------|
E|---------------------------------------------------------------------|

Guitar 1:
These are the general rhythm chords throughout which replace the job of the piano on the original.
e|-------------------------------------------------------------------|
B|-------------------------------------------------------------------|
G|-------------------------------------------------------------------|
D|-7--7--7--7-7-7------------------9--9--9--9-9-9--------------------|
A|-5--5--5--5-5-5--8--8--8--8-8-8--7--7--7--7-7-7--7--7--7--7-7-7----|
E|-----------------6--6--6--6-6-6------------------5--5--5--5-5-5----|

Guitar 2: (part 1 - Chorus/main riff) (x2)
e|--------------------------------------------------------------------------|
B|-15--15--13/15--15--15--15--13/15--15--15--15--13/15--15--11--11--10--10--|
G|--------------------------------------------------------------------------|
D|-12--12--10/12--12--12--12--10/12--12--12--12--10/12--12---8---8---7--7---|
A|--------------------------------------------------------------------------|
E|--------------------------------------------------------------------------|
   Beggin...                               Put your lovin hand out baby...

Guitar 2: (part 2 - Verses) (x2)
e|-------------------------------------------------------------------------|
B|-10--10--10--10-10-10--11--11--11--11-11-11--8--8--8--8-8-8-10--10-11-10-|
G|-------------------------------------------------------------------------|
D|-7---7---7---7--7--7----8---8---8---8--8--8--5--5--5--5-5-5--7---7--8--7-|
A|-------------------------------------------------------------------------|
E|-------------------------------------------------------------------------|

-Chorus-

Guitar 2: (Part 3 - Post chorus; very similar to verses) (x2)
e|--------------------------------------------------------------------------|
B|-10--10--10--10-10-10--11--11--11--11-11-11--8--8--8--8-8-8--11\10--10-10-|
G|--------------------------------------------------------------------------|
D|-7---7---7---7--7--7----8---8---8---8--8--8--5--5--5--5-5-5---8\7---7--7--|
A|--------------------------------------------------------------------------|
E|--------------------------------------------------------------------------|
  I need you, to under stand...   That I'm trying so hard to be your man

The tab is in chronological order, after the two intro pieces the song runs through the 
choruses, verses and post-choruses before the outro. That last part is simply the second 
part of the intro played over a few times. I hope that you found it helpful and accurate.
Tap to rate this tab
# A B C D E F G H I J K L M N O P Q R S T U V W X Y Z