Guitaretab - guitar tabs
Song name
# A B C D E F G H I J K L M N O P Q R S T U V W X Y Z

Franz Ferdinand - This Boy tab

Intro

Guitar 1
E|------------------------------------------------------|
B|------------------------------------------------------|
G|-7--9--11-9-7---7--9--11-9-7---6--7--9--7-6---6--7--9-|
D|------------------------------------------------------|
A|------------------------------------------------------|
E|------------------------------------------------------|
______________________________________________________________

Guitar 2
E|------------------------------------------------------------|
B|------------------------------------------------------------|
G|------------------------------------------------------------|
D|-------0--------------0-----------0--------------0----------|
A|-----2----2---------2---2-------2----2---------2---2--------|
E|1--2---------1--2----------1--2---------1--2----------------|

E|------------------------------------------------------------|
B|------------------------------------------------------------|
G|------------------------------------------------------------|
D|----0-----------0------------0--------------0---------------|
A|--2----2------2--2---------2----2---------2---2-------------|
E|3--------3--0-----3---1--2---------1--2---------------------|
______________________________________________________________

Verse

Guitar 1
E|------------------------------------------------------------|
B|--3--3---3--3---3--3---3--3---3--3---3--3-------------------|
G|--2--2---2--2---2--2---2--2---2--2---2--2-------------------|
D|--0--0---0--0---0--0---0--0---0--0---0--0-------------------|
A|------------------------------------------------------------|
E|------------------------------------------------------------|
[ Tab from: http://www.guitaretab.com/f/franz-ferdinand/138255.html ]
Guitar 2
E|------------------------------------------------------------|
B|------------------------------------------------------------|
G|------------------------------------------------------------|
D|-------------------------------------------5-----2----------|
A|-------------------------------------------5-----2----------|
E|1--1---1--1---1--1---1--1---1--1---1--1----3-----0----------|
______________________________________________________________

Chorus

Guitar 1
E|------------------------------------------------------|
B|------------------------------------------------------|
G|-7--9--11-9-7---7--9--11-9-7---6--7--9--7-6---6--7--9-|
D|------------------------------------------------------|
A|------------------------------------------------------|
E|------------------------------------------------------|
And this boys so spectacular...

Guitar 2
E|------------------------------------------------------------|
B|------------------------------------------------------------|
G|------------------------------------------------------------|
D|-------0--------------0-----------0--------------0----------|
A|-----2----2---------2---2-------2----2---------2---2--------|
E|1--2---------1--2----------1--2---------1--2----------------|
I wanna car, I wanna car...

E|------------------------------------------------------------|
B|------------------------------------------------------------|
G|------------------------------------------------------------|
D|----0-----------0------------0--------------0---------------|
A|--2----2------2--2---------2----2---------2---2-------------|
E|3--------3--0-----3---1--2---------1--2---------------------|
I wanna, I wanna, I wanna...
Related for This Boy tab