Guitaretab - guitar tabs
Song name
# A B C D E F G H I J K L M N O P Q R S T U V W X Y Z

Franz Ferdinand - Walk Away tab

----------------------------------------------------------------------------
			  WALK AWAY - Franz Ferdinand
----------------------------------------------------------------------------

Intro

Gtr 1
e|----------------------------------------------------------------|
B|----------------------------------------------------------------|
G|----------------------------------------------------------------|
D|----------------------------------------------------------------|
A|--------3-0-3---------5-----4-5---------5---4-5-----------------|
E|-5--5---------4-3--3-----3--------7--7----7------2--2--5--2-3-4-|

e|----------------------------------------------------------------|
B|----------------------------------------------------------------|
G|----------------------------------------------------------------|
D|----------------------------------------------------------------|
A|--0------3-0-3---------5-----4-5---------5---4-5----------------|
E|-----5---------4-3--3-----3--------7--7----7------2--2---2------|

Gtr 2

e|----------------------------------------------------------------|
B|----------------------------------------------------------------|
G|--------5---5----------7-----6-7---------7---6-7----------------|
D|--7--7----7----6-5--5-----5--------9--9----9-----4--4--7--4-5-6-|
A|----------------------------------------------------------------|
E|----------------------------------------------------------------|

e|----------------------------------------------------------------|
B|----------------------------------------------------------------|
G|--------5---5----------7-----6-7---------7---6-7----------------|
D|--7--7----7----6-5--5-----5--------9--9----9-----4--4---4-------|
A|----------------------------------------------------------------|
E|----------------------------------------------------------------|



Verse 1

Gtr 3 w/slide

e|------------------------------------/7---------------------------|
B|---/7------------------------------------------------------------|
G|-----------7\-6--------7/-11-------------------------------------|
D|-----------------------------------------------------------------|
A|-----------------------------------------------------------------|
E|-----------------------------------------------------------------|


Gtr 2 w/out slide

e|-----------------------------------------------------------------|
B|---------------------------------2----2---2---2------------------|
G|------------7--------6--------2-----2---2---2--------------------|
D|--------7-----7--7-----7--4----------------------7---------------|
A|-----------------------------------------------------------------|
E|-----------------------------------------------------------------|


e|-----------------------------------------------------------------|
B|-----------------------------------------------------------------|
G|-7---7---7---7---6---6---6---6---7---7---7---7---7---7---7---7---|
D|---7---7---7---7---7---7---7---7---9---9---9---7---9---9---9---9-|
A|-----------------------------------------------------------------|
E|-----------------------------------------------------------------|


e|-----------------------------------------------------------------|
B|-------------------------------------------------8-----8----8----|
G|-7---7---7---7---6---6---6---6---7---7---7---7-----7------7---7--|
D|---7---7---7---7---7---7---7---7---9---9---9---9-----9-----------|
A|-----------------------------------------------------------------|
E|-----------------------------------------------------------------|


e|-----------------------------------------------------------------|
B|-7----------7---7---7---7-----10-10--10-10--11-11----------------|
G|----6----6----6---6---6---6----9-9----9-9---10-10----------------|
D|------7------------------------7-7----7-7----8-8-----------------|
A|-------------------------------0-0----0-0----8-8-----------------|
E|-----------------------------------------------------------------|

Chorus

Gtr 1

e|-----------------------------------------------------------------|
B|-----------------------------------------------------------------|
G|-----------------------------------------------------------------|
D|-----------------------------------------------------------------|
A|--5---5--7-8\---------8--7----5---5--7-8--------/7---------------| x2
E|----------------6--6--------------------6---6--------------------|


e|-----------------------------------------------------------------|
B|-----------------------------------------------------------------|
G|-----------------------------------------------------------------|
D|-----------------------------------------------------------------|
A|--5---5--5----------------7-8--7---------------------------------|
E|------------5---5--5---8-----------3-----5-----------------------|

Gtr 2

e|-----------------------------------------------------------------|
B|---10----------10----10----11----------11----11------------------|
G|------10----10----10----10----10----10----10----10---------------|
D|---------12----------------------12------------------------------|
A|-----------------------------------------------------------------| x2
E|-----------------------------------------------------------------|


e|-----------------------------------------------------------------|
B|---10----------10----10-----8---------8----8---------------------|
G|------10----10----10----10-----7----7----7----7------------------|
D|---------12-----------------------8------------------------------|
A|-----------------------------------------------------------------|
E|-----------------------------------------------------------------|


e|-----------------------------------------------------------------|
B|---10----------10----10----11----------11----11------------------|
G|------10----10----10----10----10----10----10----10---------------|
D|---------12----------------------12------------------------------|
A|-----------------------------------------------------------------|
E|-----------------------------------------------------------------|


e|-----------------------------------------------------------------|
B|---10----------10----10-----10-----------10----10----------------|
G|------10----10----10----10-----9------9-----9-----9--------------|
D|---------12-----------------------11-----------------------------|
A|-----------------------------------------------------------------|
E|-----------------------------------------------------------------|


e|-----------------------------------------------------------------|
B|---8----------8----8--------8-----------8-----8------10----------|
G|------9----9----9-----9--------9-----9-----9-----9---------------|
D|--------10------------------------10-----------------------------|
A|-----------------------------------------------------------------|
E|-----------------------------------------------------------------|

Interlude


Gtr 1
e|----------------------------------------------------------------|
B|----------------------------------------------------------------|
G|----------------------------------------------------------------|
D|----------------------------------------------------------------|
A|--------3-0-3---------5-----4-5---------5---4-5-----------------|
E|-5--5---------4-3--3-----3--------7--7----7------2--2--5--2-3-4-|

e|----------------------------------------------------------------|
B|----------------------------------------------------------------|
G|----------------------------------------------------------------|
D|----------------------------------------------------------------|
A|--0------3-0-3---------5-----4-5---------5---4-5----------------|
E|-----5---------4-3--3-----3--------7--7----7------2--2---2------|

Gtr 2

e|----------------------------------------------------------------|
B|----------------------------------------------------------------|
G|--------5---5----------7-----6-7---------7---6-7----------------|
D|--7--7----7----6-5--5-----5--------9--9----9-----4--4--7--4-5-6-|
A|----------------------------------------------------------------|
E|----------------------------------------------------------------|
[ Tab from: http://www.guitaretab.com/f/franz-ferdinand/138673.html ]
e|----------------------------------------------------------------|
B|----------------------------------------------------------------|
G|--------5---5----------7-----6-7---------7---6-7----------------|
D|--7--7----7----6-5--5-----5--------9--9----9-----4--4---4-------|
A|----------------------------------------------------------------|
E|----------------------------------------------------------------|

Verse 2

Gtr 3 w/slide

e|----------------------------------12/\-----8\--------------------|
B|---/7--------------------------------------8\--------------------|
G|-----------7\-6--------/9----------------------------------------|
D|-----------------------------------------------------------------|
A|-----------------------------------------------------------------|
E|-----------------------------------------------------------------|

Gtr 2

e|------------------3-----------------------------------------------|
B|---------------0--------------------------------------------------|
G|------------0-----------------------------------------------------|
D|---------0--------------------------------------------------------|
A|-------2----------------------------------------------------------|
E|----3-------------------------------------------------------------|


e|---------------------------------2--------2----------------------|
B|------------------------------------2---2------2----2-----2------|
G|------------7--------6--------2-------2-----2----2----2----------|
D|--------7-----7--7-----7--4--------------------------------------|
A|------------------------------------------------------------0--4-|
E|-----------------------------------------------------------------|

e|-----------------------------------------------------------------|
B|-----------------------------------------------------------------|
G|--2--------------2-3-4-------------------------------------------|
D|--0---4---0---4-------------0-0-2---4--4---2--0------------------|
A|------------------------4-------------------------2--------------|
E|-----------------------------------------------------------------|

e|-----------------------------------------------------------------|
B|-----------------------------------------------------------------|
G|---4--4--6---4--4---4--4--6--4-4---4--4--6--4--------------------|
D|------------------------------------------------4----------------|
A|-----------------------------------------------------------------|
E|-----------------------------------------------------------------|


e|-----------------------------------------------------------------|
B|--------------10-10--10-10---11-11-------------------------------|
G|---------------9-9----9-9----10-10-------------------------------|
D|---------------7-7----7-7-----8-8--------------------------------|
A|---------------0-0----0-0-----8-8--------------------------------|
E|-----------------------------------------------------------------|


Chorus

Gtr 1

e|-----------------------------------------------------------------|
B|-----------------------------------------------------------------|
G|-----------------------------------------------------------------|
D|-----------------------------------------------------------------|
A|--5---5--7-8\---------8--7----5---5--7-8--------/7---------------| x2
E|----------------6--6--------------------6---6--------------------|


e|-----------------------------------------------------------------|
B|-----------------------------------------------------------------|
G|-----------------------------------------------------------------|
D|-----------------------------------------------------------------|
A|--5---5--5----------------7-8--7---------------------------------|
E|------------5---5--5---8-----------3-----5-----------------------|

Gtr 2

e|-----------------------------------------------------------------|
B|---10----------10----10----11----------11----11------------------|
G|------10----10----10----10----10----10----10----10---------------|
D|---------12----------------------12------------------------------|
A|-----------------------------------------------------------------| x2
E|-----------------------------------------------------------------|


e|-----------------------------------------------------------------|
B|---10----------10----10-----8---------8----8---------------------|
G|------10----10----10----10-----7----7----7----7------------------|
D|---------12-----------------------8------------------------------|
A|-----------------------------------------------------------------|
E|-----------------------------------------------------------------|


e|-----------------------------------------------------------------|
B|---10----------10----10----11----------11----11------------------|
G|------10----10----10----10----10----10----10----10---------------|
D|---------12----------------------12------------------------------|
A|-----------------------------------------------------------------|
E|-----------------------------------------------------------------|


e|-----------------------------------------------------------------|
B|---10----------10----10-----10-----------10----10----------------|
G|------10----10----10----10-----9------9-----9-----9--------------|
D|---------12-----------------------11-----------------------------|
A|-----------------------------------------------------------------|
E|-----------------------------------------------------------------|


e|-----------------------------------------------------------------|
B|---8----------8----8--------8-----------8-----8------10----------|
G|------9----9----9-----9--------9-----9-----9-----9---------------|
D|--------10------------------------10-----------------------------|
A|-----------------------------------------------------------------|
E|-----------------------------------------------------------------|


End

e|--5------<-0->-------------2-------------------------------------|
B|--5--------------------------------------------------------------|
G|--5--------------------------------------------------------------|
D|--7--------------------------------------------------------------|
A|--7--------------------------------------------------------------|
E|--5--------------------------------------------------------------|



INTRO

Am   G   Bm   F#m x2


VERSE 1

D
I swapped my innocence for pride

A
Crushed the end within my stride

Bm                                     F#m
Said 'I'm strong now I know that I'm a leaver"

D          A             Bm             G  
I love the sound of you walking away, you walking away

D       A                  G       
Mascara bleeds a blackened tear , oh

D                      A
And I am cold, yes I'm cold

F#m
But not as cold as you are

D          A            Bm            G 
I love the sound of you walking away, walking away

F#m
Hey, hey

A
Why don't you walk away?

A
Why don't you walk away?

Bb
Why don't you walk away?


CHORUS

Dm                Bb
No buildings will fall down
Why don't you walk away?

Dm                      Bb
No quake will split the ground
Why don't you walk away?

Dm                       Gm
The sun won't swallow the sky
Why don't you walk away?

Dm               Bb 
Statues will not cry

                         Dm                  A  
Why don't you walk away, why don't you walk away 

                   C     G      A
Why don't you walk away


INTERLUDE

Am   G   Bm   F#m x2


VERSE 2

D    
I cannot turn to see those eyes

A
As apologies may rise

Bm                          F#m
I must be strong and stay an unbeliever

D            A            Bm                   G
And love the sound of you walking away, you walking away

D        A              G
Mascara bleeds into my eye

D                  A                F#m
I'm not cold, I am old, at least as old as you are

D           Bm               D         F#m           
La la la la la la la la la la la la la la

G        
La la la la la la

Bm               F#
La la la la la la la

A
As you walk away

A
As you walk away

Bb
And as you walk away


CHORUS

Dm                     Bb
My headstone crumbles down
As you walk away

Dm                     Bb
The Hollywood wind's a howl
As you walk away

Dm             Gm
The Kremlin's falling
As you walk away

Dm         Bb
Radio 4 is static

Dm               A                     C                G    A
As you walk away, oh as you walk away, as you walk away


END

Am           G
The stab of stiletto

F#m   C#   
On a silent night

Am
Stalin smiles

G
Hitler laughs

Bm
Churchill claps

F#
Mao Tse-Tung on the back
Related for Walk Away tab
Advertisement will be closed in 10 seconds