Song name
# A B C D E F G H I J K L M N O P Q R S T U V W X Y Z

Franz Ferdinand - Sexy Boy tab

Help us improve GuitareTab! Take a short survey!
Song: Sexy Boy
Band: Franz Ferdinand
Tabbed By: NintEndO

A cover of the song by Air (album: Moon Safari)


Section A
---------

    F#5                             E5
e|-------------------------------------------------------------------|
B|-------------------------------------------------------------------|
G|-------------------------------------------------------------------|
D|------4-------2-4-----4-------2-4-----4-------2-4-----4-------2-4--|
A|-------------------------------------------------------------------|
E|--2-------2-2-----2-------2-2-----0-------0-0-----0-------0-0------|



Section A Variation
-------------------

    F#5                             A5
e|--------------------------------------------------------------------|
B|--------------------------------------------------------------------|
G|--------------------------------------2-------0-2-----2-------0-2/6-|
D|------4-------2-4-----4-------2-4-----------------------------------|
A|----------------------------------0-------0-0-----0-------0-0-------|
E|--2-------2-2-----2-------2-2---------------------------------------|



Setion B
--------

      E    B  Dsus2  A
e|------------------------|
B|----5----4----5---------|
G|----4----4----7----6----|
D|----6----4----7----7----|
A|----7----2----5----7----|
E|-------------------5----|

Just strum these chord 16 times each
It sound good if you do a quick strum of G (xx543x) in between the E and B
Related for Sexy Boy tab