Song name
# A B C D E F G H I J K L M N O P Q R S T U V W X Y Z

Franz Ferdinand - Get Away tab

Song: Get Away
Band: Franz Ferdinand
Tabbed By: NintEndO


Intro
-----

e|--2-------5-5---/-7-------10-10---|
B|--2-------5-5---/-7-------10-10---|
G|--3-------6-6---/-8-------11-11---|
D|--4-------7-7---/-9-------12-12---|
A|--4-------7-7---/-9-------12-12---|
E|--2-------5-5---/-7-------10-10---|


Verse
-----

e|------------------------------|
B|------------------------------|
G|-----6--------4--4--7-7-6-----|
D|--4--6--7--7--4--4--7-7-6-7---|
A|--4--4--7--7--2--2--5-5-4-7---|
E|--2-----5--5--------------5---|


Chorus
------

e|----------------------------|
B|----------------------------|
G|--7--6--4--6--4--4--4-4-46--|
D|--7--6--4--6--4--4--4-4-46--|
A|--5--4--2--4--2--2--2-2-24--|
E|----------------------------|

e|----------------------------|
B|----------------------------|
G|--7--6--4--6--4--4--4-4-46--|
D|--7--6--4--6--4--4--4-4-46--|
A|--5--4--2--4--2--2--2-2-24--|
E|----------------------------|

e|----------------|
B|----------------|
G|--4--4--4-4-46--|
D|--4--4--4-4-46--|
A|--2--2--2-2-24--| x2
E|----------------|





If you find that the song is too fast to be played with power chords
you might find it easier to just play the bottom one or two notes

     G|--------------
e.g. D|-----6--------
     A|--4--4--7--7--
     E|--2-----5--5--
Tap to rate this tab
 
# A B C D E F G H I J K L M N O P Q R S T U V W X Y Z