Guitaretab - guitar tabs
Song name
# A B C D E F G H I J K L M N O P Q R S T U V W X Y Z

Franz Ferdinand - What She Came For tab

----------------------------------------------------------------------------
		    WHAT SHE CAME FOR - Franz Ferdinand
----------------------------------------------------------------------------
Tabbed by: Chris Colyer
Tuning: Standard

N.B. Bends are approximately a quarter, unless otherwise stated.
e|-------------------------------------------------------------------------|
B|--8bu-10-8bu-10-8bu-10-8--------------8------------8------------8--------|
G|-------------------------10-7---10-10---10-7-10-10---10-7-10-10---10-7---|
D|-------------------------------------------------------------------------|
A|-------------------------------------------------------------------------|
E|-------------------------------------------------------------------------|

e|-------------------------------------------------------------------------|
B|--8bu-10-8-------8bu-8bu-8bu---------------------8----------------8bu-10-|
G|----------10-7--7----------10-7--7-10-10-10-10-10-10-7--7-10-10-10-------|
D|-------------------------------------------------------------------------|
A|-------------------------------------------------------------------------|
E|-------------------------------------------------------------------------|
[ Tab from: http://www.guitaretab.com/f/franz-ferdinand/179706.html ]
e|-------------------------------------------------------------------------|
B|--8------------------8-8-------------8--------8-8------------------------|
G|---10p7--10-7---7-10----10p7--10-10-7---7-10-7-7----10-------------------|
D|-------------10----------------------------------------------------------|
A|-------------------------------------------------------------------------|
E|-------------------------------------------------------------------------|
tremolo:  t   t  t     t   t   t  t   t   t  t   t
e|-------------------------------------------------------------------------|
B|-------------------------------------------------------------------------|
G|---13bu15---13-15----17--15--13-15--17--15-17--17bu----------------------|
D|-------------------------------------------------------------------------|
A|-------------------------------------------------------------------------|
E|-------------------------------------------------------------------------|

e|-------------------------------------------------------------------------|
B|--8bu--8-------------------8bu----8bu---8bu8bu8bu------------------------|
G|--------10p7--10-7-10-7--------------------------------------------------|
D|-------------------------------------------------------------------------|
A|-------------------------------------------------------------------------|
E|-------------------------------------------------------------------------|

e|-------------------------------------------------------------------------|
B|-7-7-6-7--7-7-6-7--7-----------------------------------------------------|
G|-7-7-6-7--7-7-6-7--7-----------------------------------------------------|
D|-7-7-6-7--7-7-6-7--7-----------------------------------------------------|
A|-5-5-4-5--5-5-4-5--5-----------------------------------------------------|
E|-------------------------------------------------------------------------|

| t  tremolo pick
| /  slide up
| \  slide down
| h  hammer-on
| p  pull-off
| ~  vibrato
| +  harmonic
| x  Mute note
============================================================================
Related for What She Came For tab
Advertisement will be closed in 10 seconds