Song name
# A B C D E F G H I J K L M N O P Q R S T U V W X Y Z

Franz Ferdinand - Bite Hard tab

-------------------------------------------------------------------------------
			     Bite Hard - Franz Ferdinand
-------------------------------------------------------------------------------
Tabbed by: Kievo
Email: Kevin_Moyaert@hotmail.com

I'll do the piano intro some other time :)

Tuning: standard EADGBe

00:48         00:51             01:01
e|--10-10-----------------------10-10-----------------------------------|
B|----------------------------------------------------------------------|
G|----------------------------------------5-7-5-7b9---5-7-5---5-5-7-5---|
D|------------------7-----------------5-7-------------------7-----------|
A|------------5-3-5---5-3-5---------------------------------------------|
E|----------------------------------------------------------------------|

01:08
e|-------------------------------|
B|-------------------6~6~6~------|
G|--5-7-5-7--7-7-5-7-------------|
D|-------------------------------|
A|-------------------------------|
E|-------------------------------|

01:11
e|----------------------------------------|
B|----------------------------------------|
G|-7-7-7777-------------------------------|
D|-7-7-7777-3-3-3333-5-5-5555-3-3-3333----|
A|-5-5-5555-3-3-3333-5-5-5555-3-3-3333----|
E|----------1-1-1111-3-3-3333-1-1-1111----|

e|----------------------------------------------|
B|----------------------------------------------|
G|-7-7-7777-5-5-5555-10-10-10101010-12-12-14-14-|
D|-7-7-7777-5-5-5555-10-10-10101010-12-12-14-14-|
A|-5-5-5555-3-3-3333-8--8--8-8-8-8--10-10-12-12-|
E|----------------------------------------------|

01:24
e|--------------------------------------------------------------|
B|--------------------------------------------------------------|
G|--------7-5-4-5-----4-7-7-5-4-5---------7-5-4-2---------------|
D|------7---------7-5-------------7-----7---------2-3~-5-3-5-3--|
A|--5-8-----------------------------5-8-------------------------|
E|--------------------------------------------------------------|

01:38
e|-10-10------------------------------------|
B|------------------------------------------|
G|---------11-10----10-9-7-9-10b10b10b-7-7--|
D|-------------------------------------7-7--|
A|-------------------------------------5-5--|
E|------------------------------------------|

01:51      
e|-10-10------------------------------------------------|
B|------------------------------------------------------|
G|---------5~-7---5-7-7b---10-10-10101010-12-12-14-14---|
D|-------------------------10-10-10101010-12-12-14-14---|
A|-------------------------8--8--8-8-8-8--10-10-12-12---|
E|------------------------------------------------------|

02:02
e|----------------------------------------|
B|----------------------------------------|
G|-7-7-7777-------------------------------|
D|-7-7-7777-3-3-3333-5-5-5555-3-3-3333----|
A|-5-5-5555-3-3-3333-5-5-5555-3-3-3333----|
E|----------1-1-1111-3-3-3333-1-1-1111----|

e|---------------------------------------------------|
B|---------------------------------------------------|
G|-7-7-7777-5-5-5555-10-10-10101010-12-10-12-10-12-7-|
D|-7-7-7777-5-5-5555-10-10-10101010-12-10-12-10-12-7-|
A|-5-5-5555-3-3-3333-8--8--8-8-8-8--10-8--10-8--10-5-|
E|---------------------------------------------------|

02:24
e|---------------------------------------------------------|
B|---------------------------------------------------------|
G|--------7-5-4-5-----4-7-7-5-4-5---------7-5-4-2----------|
D|------7---------7-5-------------7-----7---------2-3~-2~--|
A|--5-8-----------------------------5-8--------------------|
E|---------------------------------------------------------|

02:34
e|---------------------------------------------------13-13131313---|
B|-15-151515151515-13b-151515151515-13b-151515151515---------------|
G|-----------------------------------------------------------------|
D|-----------------------------------------------------------------|
A|-----------------------------------------------------------------|
E|-----------------------------------------------------------------|

02:42
e|----------13b---|
B|-15151515-------|
G|----------------| x8
D|----------------|
A|----------------|
E|----------------|

02:46
e|-----------------------------------------------------------|
B|-----------------------------------------------------------|
G|--7-7-7777-10-10-10101010-12-12-12121212-12-12-12121212----|
D|--7-7-7777-10-10-10101010-12-12-12121212-12-12-12121212----|
A|--5-5-5555-8--8--8-8-8-8--10-10-10101010-10-10-10101010----|
E|-----------------------------------------------------------|

02:51
e|----------------------------------------------|
B|----------------------------------------------|
G|-7-7-7777-5-5-5555-10-10-10101010-12-12-14-14-|
D|-7-7-7777-5-5-5555-10-10-10101010-12-12-14-14-|
A|-5-5-5555-3-3-3333-8--8--8-8-8-8--10-10-12-12-|
E|----------------------------------------------|

02:59
e|----------------------------------------|
B|----------------------------------------|
G|-7-7-7777-------------------------------|
D|-7-7-7777-3-3-3333-5-5-5555-3-3-3333----|
A|-5-5-5555-3-3-3333-5-5-5555-3-3-3333----|
E|----------1-1-1111-3-3-3333-1-1-1111----|

e|---------------------------------------------------|
B|---------------------------------------------------|
G|-7-7-7777-5-5-5555-10-10-10101010-12-10-12-10-12-7-|
D|-7-7-7777-5-5-5555-10-10-10101010-12-10-12-10-12-7-|
A|-5-5-5555-3-3-3333-8--8--8-8-8-8--10-8--10-8--10-5-|
E|---------------------------------------------------|

03:24
e|-----|
B|-----|
G|-7---|
D|-7---|
A|-5---|
E|-----|



| b  bend
| ~  vibrato

===============================================================================
Tap to rate this tab
# A B C D E F G H I J K L M N O P Q R S T U V W X Y Z