Song name
# A B C D E F G H I J K L M N O P Q R S T U V W X Y Z

Franz Ferdinand - 40 Ft tab

-------------------------------------------------------------------------------
			     40' - franz ferdinand
-------------------------------------------------------------------------------
Tabbed by: Behop93
Email: Bbehop93@live.com

Tuning:
                          intro x2
e|---------------------------------------------------------------------------|
B|---------------------------------------------------------------------------|
G|---------8----------------8---------8---------------8----------------------
D|----10-------10---9---9---------8-------8---9---9--------------------------|
A|---------------------------------------------------------------------------|
E|---------------------------------------------------------------------------|
                              chorus x4
e|---------------------------------------------------------------------------|
B|---------------------------------------------------------------------------|
G|---------------------------------------------------------------------------|
D|-------4---5-----3---2---3--2--3----------4---5-----3---2---3--2--3--------|
A|---3----------------------------------3------------------------------------|
E|---------------------------------------------------------------------------|
                      verse      x2
e|---------------------------------------------------------------------------|
B|------------4----------------3-----------------4--------------6------------|
G|--------5--------5-------3-------3---------5-------5------5------5---------|
D|----5----------------5-----------------5--------------5--------------------|
A|----3----------------------------------3-----------------------------------|
E|----------------------------------------------------------------------   


e|--------------------------3---3---3---3---3---3---3---3---3---3------------|
B|------3---3---3---3---3---3---3---3---3---3---3---3---3---3---3------------|
G|------0---0---0---0---0---0---0---0---0---0---0---0---0---0---0------------|
D|---------------------------------------------------------------------------|
A|---------------------------------------------------------------------------|
E|---------------------------------------------------------------------------|
                             pre-chorusx6
e|--------3--x--x--x--x--x--x--6--6--6--6------------------------------------|
B|--------4--x--x--x--x--x--x--8--8--8--8------------------------------------|
G|--------5--x--x--x--x--x--x--7--7--7--7------------------------------------|
D|---------------------------------------------------------------------------|
A|---------------------------------------------------------------------------|
E|---------------------------------------------------------------------------|
                          chorus
e|---------------------------------------------------------------------------|
B|-----------------------------------1---1---1---1---1---1---1---------------|
G|-----------------------------------x---x---x---x---x---x---x---0-----------|
D|-------------------3---3---3---3---3---3---3---3---3---3---3---0-----------|
A|-------3---3---3---3---3---3---3---3---3---3---3---3---3---3---------------|
E|---1---1---1---1---1---1---1---1---1---1---1---1---1---1---1---------------|
                                 x4
e|---------------------------------------------------------------------------|
B|---------------------------------------------------------------------------|
G|---------------3---2---3--2--3-------------------3---2---3--2--3-----------|
D|-------4---5-----------------------------4---5-----------------------------|
A|---3---------------------------------3-------------------------------------|
E|---------------------------------------------------------------------------|
                                  solo
e|---------------------------------------------------------------------------|
B|---------------------------------------------------------------------------|
G|------------------------------------5/8---7--------------------------------|
D|---------------------------3----5-------------5----5--3--5---5--5----------|
A|-----3----3---5---6----6---------------------------------------------------|
E|---------------------------------------------------------------------------|

e|---------------------------------------------------------------------------|
B|---------------------------------------------------------------------------|
G|---3---3-----3-----3---4---------------------------------------------------|
D|----------5-----5----------------------------------------------------------|
A|---------------------------------------------------------------------------|
E|---------------------------------------------------------------------------|
                           tremolo picking
e|---------------------------------------------------------------------------|
B|------------------------------------------------------------------0--------|
G|---5-----3-----5----3---5---7---8---7----5----3---5--------3------4>-------|
D|---------------------------------------------------------------------------|
A|---------------------------------------------------------------------------|
E|---------------------------------------------------------------------------|
                              bass part x4
e|---------------------------------------------------------------------------|
B|---------------------------------------------------------------------------|
G|---------------------------------------------------------------------------|
D|--------5-------5-------5-------5--------5-----5---------------------------|
A|----3-------5-------3-------5---------3-----5------------------------------|
E|---------------------------------------------------------------------------|

                               chorus
e|---------------------------------------------------------------------------|
B|-------------------------1---1---1---1---1---1---1---1---------------------|
G|-------------------------x---x---x---x---x---x---x---x---0-----------------|
D|-------------------------3---3---3---3---3---3---3---3---0-----------------|
A|---------3---3---3---3---3---3---3---3---3---3---3---3---------------------|
E|----1----1---1---1---1---1---1---1---1---1---1---1---1---------------------|

e|---------------------------------------------------------------------------|
B|---------------------------------------------------------------------------|
G|----5------3---5------------3----5-----7------8------10-------------------
-|
D|---------------------------------------------------------------------------|
A|---------------------------------------------------------------------------|
E|---------------------------------------------------------------------------|

e|---------------------------------------------------------------------------|
B|---------------------------------------------------------------------------|
G|---4---4---4---4---4---4---4---3---4---4---4---4---4---3---4---3-----------|
D|---------------------------------------------------------------------------|
A|---------------------------------------------------------------------------|
E|---------------------------------------------------------------------------|

e|---------------------------------------------------------------------------|
B|---------------------------11>-------------------11-----12------------------------|
G|----12------------12>-----------------------------------------------------------|
D|---------------------------------------------------------------------------|
A|---------------------------------------------------------------------------|
E|---------------------------------------------------------------------------|


e|---------------------------------------------------------------------------|
B|--13>-----13>------11-------------11----13>----13>------11-------------11--|
G|------------------------12---12------------------------------12--10--12----|
D|---------------------------------------------------------------------------|
A|---------------------------------------------------------------------------|
E|---------------------------------------------------------------------------|

e|---------------------------------------------------------------------------|
B|---13>-------13>-----13>-----13>-----13>-----15---15>---0---0---4----------|
G|--------------------------------------------------------0---0---5----------|
D|--------------------------------------------------------0---0---5----------|
A|----------------------------------------------------------------3----------|
E|---------------------------------------------------------------------------|


/slide up
| \  slide down
| h  hammer-on
| p  pull-off
| ~  vibrato
| +  harmonic
| x  Mute note
  >  Bend
Tap to rate this tab
# A B C D E F G H I J K L M N O P Q R S T U V W X Y Z