Guitaretab - guitar tabs
Song name
# A B C D E F G H I J K L M N O P Q R S T U V W X Y Z

Franz Ferdinand - Take Me Out tab

 Take Me Out
 Franz Ferdinand
 Franz Ferdinand

I looked at all the other tabs on the site, and was surprised at the
unacurate-ness of all of them. Im pretty confident this one fixes all
the other's mistakes.

   |-Guitar 1--|
   |           | 
   |-Guitar 2--|

e|---------------------------------------|
b|---------------------------------------|
G|---------------------------------------|
D|---9-----------------------------------|
A|-777-----------------------------------|
E|-000-----------------------------------|
 |                                       |
e|---------------------------------------|
b|---------------------------------------|
G|---------------------------------------|
D|-2-2-2-2-2-2-2-2-2-2-2-2-2-2-2-2-2-2-2-|
A|---------------------------------------|
E|---------------------------------------|
   \__________Volume swells____________/
                              So if you're


e[|---------------------------------|
b[|---------------------------------|
G[|---------------------------------|
D[|-2-2-2-2-2-2-2-2-----------------|
A[|-----------------5-5-5-5-5-5-5-5-|
E[|---------------------------------|
 [|                                 |
e[|---------------------------------|
b[|---------------------------------|
G[|-0-0-0-0-0-0-0-0-----------------|
D[|-----------------4-4-4-4-4-4-4-4-|
A[|---------------------------------|
E[|---------------------------------|
    lonely,                you know I'm


e|---------------------------------|]\
b|---------------------------------|] \
G|---------------------------------|]  \
D|-5-5-5-5-4-4-4-4-2-2-2-2-2-2-2-2-|]   \
A|---------------------------------|]    \
E|---------------------------------|]     \
 |                                 |]     (x4)
e|---------------------------------|]     /
b|---------------------------------|]    /
G|-4-4-4-4-2-2-2-2-0-0-0-0-0---0---|]   /
D|---------------------------2---2-|]  /
A|---------------------------------|] /
E|---------------------------------|]/
   here    waiting


e|-----------------------------------|
B|-----------------------------------|
G|-----------------------------------|
D|-5-5-5-5-7-7-7-7-2-2-2-2-2-2-2-2-2-|
A|-----------------------------------|
E|-----------------------------------|
 |                                   |
e|-----------------------------------|
b|-----------------------------------|
G|-0-0-0-0-2-2-2---------------------|
D|---------------2-2-2-2-2-2-2-2-2-2-|
A|-----------------------------------|
E|-----------------------------------|


e|---------------------------------|
B|---------------------------------|
G|---------------------------------|
D|---------------------------------|
A|---------------------------------|
E|-3-3-3-3-5-5-5-5-0-0-0-0-0-0-0-0-|
 |                                 |
e|---------------------------------|
b|---------------------------------|
G|---------------------------------|
D|-0-0-0-0-2-2-0-2---2-2-2-2-2-2-2-|
A|---------------------------------|
E|-------------------0-0-0-0-0-0-0-|


e|---------------------------------|---------------------------------|
b|---------------------------------|---------------------------------|
G|---------------------------------|---------------------------------|
D|-----------------0-0-0-0-0-0-0-0-|---------------------------------|
A|-5-5-5-5-5-5-5-5-----------------|-3-3-3-3-3-3-3-3-3-3-3-3-3-3-3-3-|
E|-3-3-3-3-3-3-3-3-----------------|-1-1-1-1-1-1-1-1-----------------|
 |                                 |                                 |
e|---------------------------------|---------------------------------|
b|---------------------------------|---------------------------------|
G|---------------------------------|---------------------------------|
D|-----------------0-0-0-0-0-0-0-0-|---------------------------------|
A|-5-5-5-5-5-5-5-5-----------------|-3-3-3-3-3-3-3-3-3-3-3-3-3-3-3-3-|
E|-3-3-3-3-3-3-3-3-----------------|-1-1-1-1-1-1-1-1-----------------|
   I       know    I       wont be   leaving here            with


e|---------------------------------|
b|---------------------------------|
G|---------------------------------|
D|-2-2-2-2-2-2-2-2-2-2-2-2-2-2-2-2-|
A|-2-2-2-2-2-2-2-2-2-2-2-2-2-2-2-2-|
E|-0-0-0-0-0-0-0-0-0-0-0-0-0-0-0-0-|
 |                                 |
e|---------------------------------|
b|---------------------------------|
G|-------------9-9-9-9-9-9-9-9-9-9-|
D|-9-9-9-9-9-9-9-9-9-9-9-9-9-9-9-9-|
A|/7-7-7-7-7-7-7-7-7-7-7-7-7-7-7-7-|
E|---------------------------------|
  You


e|---------------------------------|
b|---------------------------------|
G|-9-9-9-9-9-9-9-9-9-9-9-9-9-9-9-9-|
D|-9-9-9-9-9-9-9-9-9-9-9-9-9-9-9-9-|
A|-7-7-7-7-7-7-7-7-7-7-7-7-7-7-7-7-|
E|-0-0-0-0-0-0-0-0-0-0-0-0-0-0-0-0-|
 |                                 |
e|---------------------------------|
b|---------------------------------|
G|-9-9-9-9-9-9-9-9-9-9-9-9-9-9-9-9-|
D|-9-9-9-9-9-9-9-9-9-9-9-9-9-9-9-9-|
A|-7-7-7-7-7-7-7-7-7-7-7-7-7-7-7-7-|
E|-0-0-0-0-0-0-0-0-0-0-0-0-0-0-0-0-|
   \_______slowing down__________/



e[|--------------------|]\
B[|--------------------|] \
G[|-9---9---9-x-99--0--|]  \
D[|-9---9---9-x-99--0--|]   \
A[|-7---7---7-x-77-----|]    \
E[|--------------------|]     \
 [|                    |]     (x4)
e[|--------------------|]     /
B[|--------------------|]    /
G[|-9---9---9-x-99--7--|]   /
D[|-9---9---9-x-99--7--|]  /
A[|-7---7---7-x-77--7--|] /
E[|-0---0---0-x-00-----|]/



A third guitar comes in during the chorus:

e[|-------------------------|-------------------------|
B[|-8-----------------------|-8-----------------------|
G[|----9--9p7-----7--9------|----9--9p7-----7--9------|
D[|------------9------------|------------9------------|
A[|-------------------------|-------------------------|
E[|-------------------------|-------------------------|
 [|                         |                         |
e[|-------------------------|-------------------------|
B[|-------------------------|-------------------------|
G[|-7-7-7-7-7-7-7-7-9--7-9--|-7-7-7-7-7-7-7-7-9--7-9--|
D[|-------------------------|-------------------------|
A[|-------------------------|-------------------------|
E[|-------------------------|-------------------------|
 [|                         |                         |
e[|-------------------------|-------------------------|
B[|-------------------------|-------------------------|
G[|-------------------------|-------------------------|
D[|-9-----9-----9-x--99--7--|-9-----9-----9-x--99--7--|
A[|-7-----7-----7-x--77--7--|-7-----7-----7-x--77--7--|
E[|-0-----0-----0-x--00--0--|-0-----0-----0-x--00--0--|
[ Tab from: http://www.guitaretab.com/f/franz-ferdinand/226445.html ]
e|-------------------------|-------------------------|]
B|-8-----------------------|-7-7-7-7-7-7-7-7---------|]
G|----9--9p7-----7--9------|-----------------7-7-7-7-|]
D|------------9------------|-------------------------|]
A|-------------------------|-------------------------|]
E|-------------------------|-------------------------|]
 |                                                   |]
e|-------------------------|-------------------------|]
B|-------------------------|-------------------------|]
G|-5-5-5-5-5-5-5-5-7--5-7--|-7-7-7-7-7---7-----------|](x2)
D|-------------------------|---------------9p7-------|]
A|-------------------------|-------------------7-7-7-|]
E|-------------------------|---------------------0-0-|]
 |                         |                         |]
e|-------------------------|-------------------------|]
B|-------------------------|-------------------------|]
G|-------------------------|-------------------------|]
D|-------------------------|-------------------------|]
A|-7-----7-----7-x--77--7--|/9-----9-----9-x--99--9--|]
E|-5-----5-----5-x--55--5--|/7-----7-----7-x--77--7--|]


e[|-------------------------|-------------------------|
B[|-------------------------|-------------------------|
G[|-------------------------|-------------------------|
D[|-9-----9-----9-x--99--7--|-9-----9-----9-x--99--7--|
A[|-7-----7-----7-x--77--7--|-7-----7-----7-x--77--7--|
E[|-0-----0-----0-x--00--0--|-0-----0-----0-x--00--0--|
 [|                         |                         |
e[|-------------------------|-------------------------|
B[|-------------------------|-------------------------|
G[|-7-7-7-7-7-7-7-7-9--7-9--|-7-7-7-7-7-7-7-7-9--7-9--|
D[|-------------------------|-------------------------|
A[|-------------------------|-------------------------|
E[|-------------------------|-------------------------|


e|-------------------------|-------------------------|]\
B|-------------------------|-------------------------|] \
G|-------------------------|-------------------------|]  \
D|-------------------------|-------------------------|]   \
A|-7-----7-----7-x--77--7--|/9-----9-----9-x--99--9--|]    \
E|-5-----5-----5-x--55--5--|/7-----7-----7-x--77--7--|]     \
 |                                                   |]     (x2)
e|-------------------------|-------------------------|]     /
B|-------------------------|-------------------------|]    /
G|-5-5-5-5-5-5-5-5-7--5-7--|-7-7-7-7-7-7-7-----------|]   /
D|-------------------------|---------------9p7-------|]  /
A|-------------------------|-------------------7-7-7-|] /
E|-------------------------|---------------------0-0-|]/


e|-------------------------|-------------------------|
B|-8-----------------------|-8-----------------------|
G|----9--9p7-----7--9------|----9--9p7-----7--9------|
D|------------9------------|------------9------------|
A|-------------------------|-------------------------|
E|-------------------------|-------------------------|
 |                         |                         |
e|-------------------------|-------------------------|
B|-------------------------|-------------------------|
G|-7-7-7-7-7-7-7-7-9--7-9--|-7-7-7-7-7-7-7-7-9--7-9--|
D|-------------------------|-------------------------|
A|-------------------------|-------------------------|
E|-------------------------|-------------------------|
 |                         |                         |
e|-------------------------|-------------------------|
B|-------------------------|-------------------------|
G|-------------------------|-------------------------|
D|-9-----9-----9-x--99--7--|-9-----9-----9-x--99--7--|
A|-7-----7-----7-x--77--7--|-7-----7-----7-x--77--7--|
E|-0-----0-----0-x--00--0--|-0-----0-----0-x--00--0--|


e|-------------------------|-------------------------|
B|-8-----------------------|-7-7-7-7-7-7-7-7---------|
G|----9--9p7-----7--9------|-----------------7-7-7-7-|
D|------------9------------|-------------------------|
A|-------------------------|-------------------------|
E|-------------------------|-------------------------|
 |                         |                         |
e|-------------------------|-------------------------|
B|-------------------------|-------------------------|
G|-5-5-5-5-5-5-5-5-7--5-7--|-7-7-7-7-7-7-7-----------|
D|-------------------------|---------------9p7-------|
A|-------------------------|------------------7-7-7--|
E|-------------------------|--------------------0-0--|
 |                         |                         |
e|-------------------------|-------------------------|
B|-------------------------|-------------------------|
G|-------------------------|-------------------------|
D|-------------------------|-------------------------|
A|-7-----7-----7-x--77--7--|/9-----9-----9-x--99--9--|
E|-5-----5-----5-x--55--5--|/7-----7-----7-x--77--7--|


e[|-------7---------7-------|-------7---------7-------|
B[|---7---------7h8---------|---7h8-------7h8---------|
G[|-------------------9-----|-------------------9-----|
D[|-------------------------|-------------------------|
A[|-------------------------|-------------------------|
E[|-------------------------|-------------------------|
 [|                         |                         |
e[|-------------------------|-------------------------|
B[|-------------------------|-------------------------|
G[|-------------------------|-------------------------|
D[|-9-----9-----9-x--99--7--|-9-----9-----9-x--99--7--|
A[|-7-----7-----7-x--77--7--|-7-----7-----7-x--77--7--|
E[|-0-----0-----0-x--00--0--|-0-----0-----0-x--00--0--|
 [|                         |                         |
e[|-------------------------|-------------------------|
B[|-------------------------|-------------------------|
G[|-7-7-7-7-7-7-7-7-9--7-9--|-7-7-7-7-7-7-7-7-9--7-9--|
D[|-------------------------|-------------------------|
A[|-------------------------|-------------------------|
E[|-------------------------|-------------------------|
     I   say   you dont


e|-------7---------7-------|-------------------------|]
B|---5h8-------5h8---------|---7h8-------7h8---------|]
G|-------------------9-----|-------7--------7-9--7-9-|]
D|-------------------------|-------------------------|]
A|-------------------------|-------------------------|]
E|-------------------------|-------------------------|]
 |                         |                         |]
e|-------------------------|-------------------------|]
B|-------------------------|-------------------------|]
G|-------------------------|-------------------------|](x2)
D|-------------------------|-------------------------|]
A|-7-----7-----7-x--77--7--|/9-----9-----9-x--99--9--|]
E|-5-----5-----5-x--55--5--|/7-----7-----7-x--77--7--|]
 |                                                   |]
e|-------------------------|-------------------------|]
B|-------------------------|-------------------------|]
G|-5-5-5-5-5-5-5-5-7--5-7--|-7-7-7-7-7-7-7-----------|]
D|-------------------------|---------------9p7-------|]
A|-------------------------|-------------------7-7-7-|]
E|-------------------------|---------------------0-0-|]



e|------------------|\
B|------------------| \
G|-9---9---9-0-99-0-|  \
D|-9---9---9-0-99-0-|   \
A|-7---7---7---77---|    \
E|------------------|     \
 |                  |     (x2)
e|------------------|     /
B|------------------|    /
G|-9---9---9-7-99-7-|   /
D|-9---9---9-7-99-7-|  /
A|-7---7---7-5-77-5-| /
E|-0---0---0---00---|/




Only one guitar from 3:21-3:38:

      AM                  C           D
e|--x-5-xx5---x-5-xx5---x-8--xx8----x-10-xx10----|
B|--x-5-xx5---x-5-xx5---x-8--xx8----x-10-xx10----|
G|--x-5-xx5---x-5-xx5---x-9--xx9----x-11-xx11----|
D|--x-7-xx7---x-7-xx7----------------------------|x4
A|-----------------------------------------------|
E|-----------------------------------------------|
     I    Know I 


e|------------------|   |------------------------|
B|------------------|   |------------------------|
G|-9---9---9-0-99-0-|   |------------------------|
D|-9---9---9-0-99-0-|   |------------------------|
A|-7---7---7---77---|   |-2----------------------|
E|------------------|   |-0----------------------|
 |                  |x3 |                        |
e|------------------|   |------------------------|
B|------------------|   |------------------------|
G|-9---9---9-7-99-7-|   |-9----------------------|
D|-9---9---9-7-99-7-|   |-9----------------------|
A|-7---7---7-7-77-7-|   |-7----------------------|
E|-0---0---0---00---|   |-0----------------------|
Related for Take Me Out tab
Take Me Out chords by Franz Ferdinand