Song name
# A B C D E F G H I J K L M N O P Q R S T U V W X Y Z

Franz Ferdinand - Call Me tab

Standard Tuning - No Capo

Intro. x1
e]------------------------------------|
b]------------------------------------|
g]------------------------------------|
d]------------------------------------|
a]-----------3-2--------------5-4-----|
E]-1-1-4-1-4--------1-1-4-1-4---------|

Main Riff x2
e]------------------------------------|
b]------------------------------------|   Listen to the track 
g]-8/10-10--8/10-10--8/10-10----------|   to get the rhythm
d]-8/10-10--8/10-10--8/10-10--8-6-----|
a]-6/8--8---6/8--8---6/8--8---8-6-----|
E]----------------------------6-4-----|

e]------------------------------------|
b]------------------------------------|    
g]-8/10-10--8/10-10--8/10-10----------|   
d]-8/10-10--8/10-10--8/10-10--6-8-----|
a]-6/8--8---6/8--8---6/8--8---6-8-----|
E]----------------------------4-6-----|

Verse 1 - No Guitar

Chorus x2
e]------------------------------------|
b]------------------------------------|
g]-10101010--8888---------------------|
d]-10101010--8888--8888--6666---------|
a]-8-8-8-8---6666--8888--6666---------|
E]-----------------6666--4444---------|

Main Riff x2

Verse 2
e]------------------------------------|
b]------------------------------------|
g]------------------------------------|
d]-88888888-66666666------------------|     x2
a]-88888888-66666666------------------|
E]-66666666-44444444------------------|
  {-------PM--------}

e]-------------------------------------|
b]-------------------------------------|
g]--------10101010---------------------|
d]-8888---10101010---------------------|    x2
a]-8888---8-8-8-8----------------------|
E]-6666--------------------------------|
  {-PM-}

Chorus

Interlude
e]------------------------------------|
b]------------------------------------|  
g]-8/10-10--8/10-10--8/10-10----------|  
d]-8/10-10--8/10-10--8/10-10--8-6-----|
a]-6/8--8---6/8--8---6/8--8---8-6-----|
E]----------------------------6-4-----|

e]------------------------------------|
b]------------------------------------|
g]-10/12-12--10/12-12--10/12-12-------|
d]-10/12-12--10/12-12--10/12-12--10-8-|
a]-8 /10-10--8 /10-10--8 /10-10--10-8-|
E]-------------------------------8--6-|

Bridge - No Guitar

'Pre-Chorus' Bit - Starts with lyric: "Any time, any place, anywhere..." 
e]------------------------------------|
b]------------------------------------|
g]-------------8888--1010101010101010-|
d]-6666--8888--8888--1010101010101010-|
a]-6666--8888--6666--8-8-8-8-8-8-8-8--|
E]-4444--6666-------------------------|
  {-------PM-------}

e]-----------------------------------------------|
b]-----------------------------------------------|
g]-------------8888--10101010--1212121212121212--|
d]-6666--8888--8888--10101010--1212121212121212--|
a]-6666--8888--6666--8-8-8-8---1010101010101010--|
E]-4444--6666------------------------------------|
  {------------PM------------}

Chorus x4

Main Riff x2

Outro
e]--------|
b]--------|
g]--------|
d]-888/6--|
a]-888/6--|
E]-666/4--|

I don't think its too bad (hopefully) - few bits that I'm not 100% sure about.

Please rate - Thanks.



Tap to rate this tab
# A B C D E F G H I J K L M N O P Q R S T U V W X Y Z