Song name
# A B C D E F G H I J K L M N O P Q R S T U V W X Y Z

Franz Ferdinand - Fade Together tab

-------------------------------------------------------------------------------
			     Fade Together - Franz Ferdinand
-------------------------------------------------------------------------------
Tabbed by:Fyfie
Email:Fyfie2810@gmail.com

Tuning:Standard

Piano Part on Guitar 

e|----------1--3-0-----|
B|----------1------1---|
G|---------------------|
D|---------------------|
A|--2--3---------------|
E|---------------------|

e|-------------3-1---1-----|
B|------------3----3---3---|
G|----------3------------2-|
D|-------------------------|
A|--3--1-------------------|
E|-------------------------|

************************************

| /   slide up
| \   slide down
| h   hammer-on
| p   pull-off
| ~   vibrato
| +   harmonic
| x   Mute note
| b   Bend
| pb  Pre-bend
| br  Bend release
| pbr Pre-bend release
| brb Bend release bend

************************************
Tap to rate this tab
# A B C D E F G H I J K L M N O P Q R S T U V W X Y Z