Song name
# A B C D E F G H I J K L M N O P Q R S T U V W X Y Z

Franz Ferdinand - 40 Ft tab

-------------------------------------------------------------------------------
			     40 Ft - Franz Ferdinand
-------------------------------------------------------------------------------
Tabbed by: Fyfie
Email: fyfie2810@gmail.com

Tuning: Standard


e|----------------------------------------|
B|----------------------------------------|
G|----------------------------------------|
D|----------------------------------------|
A|----------19----------------------19----|
E|----21----------21----19----19----------|


e|----------------------------------------|
B|----------------------------------------|
G|----------------------------------------|
D|----------------------------------------|
A|----------19----------------------19----|
E|----19----------19----21----21----------|

or

e|----------------------------------------|
B|----------------------------------------|
G|----------------------------------------|
D|----------------------------------------|
A|----------7----------------------7------|
E|----9----------9----7----7--------------|


e|----------------------------------------|
B|----------------------------------------|
G|----------------------------------------|
D|----------------------------------------|
A|---------7-------------------7----------|
E|----7---------7----9----9---------------|


Main Riff

e|--------------------------------------|
B|--------------------------------------|
G|---------------------3--2--3--2--3----|
D|---------4----5-----------------------|
A|----3---------------------------------|
E|--------------------------------------|

e|--------------------------------------|
B|--------------------------------------|
G|--------------------------------------|
D|---------4----5------3--2--3--2--3----|
A|----3---------------------------------|
E|--------------------------------------|



Chorus
"la la la la"

e|------------------|
B|------------------|
G|-8-x-x-x-8-8-8-8--|
D|-8-x-x-x-8-8-8-8--|
A|-6-x-x-x-6-6-6-6--|
E|------------------|


************************************

| /   slide up
| \   slide down
| h   hammer-on
| p   pull-off
| ~   vibrato
| +   harmonic
| x   Mute note
| b   Bend
| pb  Pre-bend
| br  Bend release
| pbr Pre-bend release
| brb Bend release bend

************************************
Tap to rate this tab
# A B C D E F G H I J K L M N O P Q R S T U V W X Y Z