Franz Ferdinand - Youre The Reason Im Leaving chords

Highlighted       Show chord diagrams
This is how i play the song on the acoustic guitar. I have omitted the bridge part.

I prefer to use the barre chords, because they allow you to alternate your sound,
depending on how much pressure you put on the strings.

  Bm  A  D  F# F#m  G

e|-7--5--5--2---2---3-------------------------------------------------------|
B|-7--5--7--2---2---3-------------------------------------------------------|
G|-7--6--7--3---2---4-------------------------------------------------------|
D|-9--7--7--4---4---5-------------------------------------------------------|
A|-9--7--5--4---4---5-------------------------------------------------------|
E|-7--5-----2---2---3-------------------------------------------------------|


But you can use any variatons you are familiar with!

Enjoy :)


Intro:

e|----------------------------------------------------------------------|
B|----------------------------------------------------------------------|
G|----------------------------------------------------------------------|
D|----------------------------------------------------------------------|
A|------2---2-0-2-4---------5-4-2-0-2---2---2-0-2-4---------5-4-2-0-2---|
E|-2/7--------------5-2---2-------------------------5-2---2-------------|

e|----------------------------------------------------------------------|
B|----------------------------------------------------------------------|
G|----------------------------------------------------------------------|
D|-4--4--4--2--2--2-0-2-4-----------------------------------------------|
A|------------------------5-2-------------------------------------------|
E|----------------------------------------------------------------------|

Bm             A   
Some granite wall
           D              A
Numbs our bones, numbs our all
       Bm               D
As we sit on skinny hands
            F#
Nothin to say, nothin at all
Bm                A
oh I don't know you
     D
and I
              A
I don't want to
           Bm                D
You're so awkward just like me
              F#
But I don't care


   Bm                        F#m     Bm
Ohhh, You're the reason I'm leavin
                        F#m
You're the reason I'm leavin
D                  A                      Bm
If I'm leaving we don't stop livin, you know

Bm         A      D
I've no idea, oh
              A
That in four years
        Bm             D
I'd be hanging from a beam
            F#
Behind the door of number ten

          A             E               Bm              F#
Singin' well, fare thee well, fare thee well, fare thee well
        A             E               D
I am leaving, yes I leave it all to you...

Bm                     F#m              Bm
You're the reason I'm leaving (Leaving alone)
Bm                     F#m              D
you're the reason I'm leaving (Leaving alone)
                    A                      Bm
If I'm leaving we don't stop livin', you know
Bm                     F#m              Bm
I'm the reason you're leaving (Leaving alone)
Bm                     F#m              D
You're the reason I'm leaving (Leaving alone)
                    A                        Bm
If I'm leaving we don't stop livin', you know


(--bridge--)


Bm           A
As we ride along
         D           A
Under an optimistic sun
           Bm              D            F#
The radio sings that everybody song by rem
           Bm            A
And here I am fighting, fighting
          D               A 
Yes I'm fighting not to cry
             Bm             D
and that's another reason why
            F#              
I ought to hate you like I do
        G              Bm    F#m                
Like I do, ohh like I do

Bm                     F#m              Bm
You're the reason I'm leaving (Leaving alone)
Bm                     F#m              D
You're the reason I'm leaving (Leaving alone)
                    A                     Bm
if I'm leaving we don't stop livin', you know
Bm                     F#m              Bm
I'm the reason you're leaving (Leaving alone)
Bm                     F#m              D
I'm the reason you're leaving (Leaving alone)
                    A                        Bm
If we're leaving we don't stop livin', you know
Tap to rate this tab
 
# A B C D E F G H I J K L M N O P Q R S T U V W X Y Z