Song name
# A B C D E F G H I J K L M N O P Q R S T U V W X Y Z

Franz Ferdinand - Fallen tab

Tab Legend
> - Sustained note
/ - Slide (3 means a slower slide)
b - Bend
v - Vibrato
vb -Vibrato while bending

THIS SONG IS CALLED "The Fallen"! Somebody fix that please!

+++Bass will be tabbed separately+++

(NOTE: Studio Version, Not Youtube Version)
(NOTE: Listen to the song for your Rhythm!)
(NOTE: Pick the notes at the end of each slide)

=============================================================================


Intro (Heavy Distortion + Sustain)
e|------------------------------------------------------|
B|------------------------------------------------------|
G|------------------------------------------------------|
D|------------------------------------------------------| x2
A|-3>>>>>>>>>>>>>>>>>>>>>>>>>>>>>>>>>>>>>>>>>>>>>-------|
E|------------------------------------------------------|



=============================================================================


Chorus 1 (Guitar 1) -Used only in Intro
e|------------------------------------------------------|
B|------------------------------------------------------|
G|------------------------------------------------------|
D|------------------------------------------------------| x1
A|-8///3---3-3/13-13-13------11-------------------------|
E|----------------------13------13----------------------|


Chorus 2 (Guitar 1) - Main Chorus
e|------------------------------------------------------|
B|------------------------------------------------------|
G|------------------------------------------------------|
D|------------------------------------------------------| x5
A|-3--3---3/13-13-13------11----------------------------|
E|-------------------13------13-------------------------|


=============================================================================


Chorus 3 (Guitar 2) - Main Chorus
e|----------------------------------------------------------|
B|----------------------------------------------------------|
G|-------------------------5-----5--------------------------|
D|-3--0---------7-7--5--7------7---7--5---5--7-5-3----------|
A|-------2------------------------------------------6-5---3-|
E|----------3-----------------------------------------------|


=============================================================================


Chorus 4(Background Distorted Guitar) Repeat 2x
e|------------------------------------------------------|
B|------------------------------------------------------|
G|----------------------------------------9-------------|
D|-7-9-10---9-7---7-7-9-10---9-7---7-9-10---9-7---------|
A|------------------------------------------------------|
E|------------------------------------------------------|


e|------------------------------------------------------|
B|------------------------------------------------------|
G|------------------------------------------------------|
D|-5-7-9-----2b3----------------------------------------|
A|------------------------------------------------------|
E|------------------------------------------------------|



Chorus 5 (Light Distortion Guitar) Repeat x2
e|----------------------------------------------------------|
B|----------------------------------------------------------|
G|--------------8-9-----------------8-9-----------------8-9-|
D|-7-7--10-9-7-------10-9-7--10-9-7------10-9-7--10-9-7-----|
A|----------------------------------------------------------|
E|----------------------------------------------------------|


e|------------------------------------------------------|
B|------------------------------------------------------|
G|------------------------------------------------------|
D|-10-9-5--10--6vvv-------------------------------------|
A|------------------------------------------------------|
E|------------------------------------------------------|



=============================================================================


Chorus 6 Repeat 2x
e|-----------5-------------5-------------5--------------|
B|-----------6-------------6-------------6--------------|
G|-2-2-2-----5---2-2-2-----5---2-2-2-----5--------------|
D|-2-2-2---------2-2-2---------2-2-2--------------------|
A|-0-0-0---------0-0-0---------0-0-0--------------------|
E|------------------------------------------------------|

(2nd time do the 2nd chord 8 times)
e|------------------------------------------------------|
B|------------------------------------------------------|
G|------------------------------------------------------|
D|-5-5-5----6-6-6---------------------------------------|
A|-5-5-5----6-6-6---------------------------------------|
E|-3-3-3----4-4-4---------------------------------------|


=============================================================================

Repeat Chorus 2 (Three times only)
Repeat Chorus 3

Chorus 7
e|-----------5-------------5----------------------------|
B|-----------6-------------6----------------------------|
G|-2-2-2-----5---2-2-2-----5----------------------------|
D|-2-2-2---------2-2-2---------5-5-5----6-6-6-6-6-6-6-6-|
A|-0-0-0---------0-0-0---------5-5-5----6-6-6-6-6-6-6-6-|
E|-----------------------------3-3-3----4-4-4-4-4-4-4-4-|

Repeat Chorus 2 (Two times only)
Repeat Chorus 3
Repeat Chorus 4 and 5 (One time only)
Repeat Chorus 6
Repeat Chorus 2 (All 5 times)
Repeat Chorus 3

Chorus 8 Chords (Acoustic)
e|------------------------------------------------------------------|
B|------------------------------------------------------------------|
G|-5---5--5---7---7--7---9---9--9---7---7--7---10---10--10---5--5-5-|
D|-5---5--5---7---7--7---9---9--9---7---7--7---10---10--10---5--5-5-|
A|-3---3--3---5---5--5---7---7--7---5---5--5----8----8---8---3--3-3-|
E|------------------------------------------------------------------|


e|------------------------------------------------------|
B|------------------------------------------------------|
G|-10--10-10---7-7-7------------------------------------|
D|-10--10-10---7-7-7------------------------------------|
A|--8---8--8---5-5-5------------------------------------|
E|------------------------------------------------------|


e|------------------------------------------------------|
B|------------------------------------------------------|
G|------------------------------------------------------|
D|-5----------------------------------------------------| x18
A|-5----------------------------------------------------|
E|-3----------------------------------------------------|


Chorus 9 (Distorted Electric Guitar played with vocals during Chorus 8)
e|-------------------------------------------------------------|
B|-------------------------------------------------------------|
G|-------------------------------------------------------------|
D|-------------------------------------------------------------|
A|-3--3--5--3-5-7--8-7-5--3-5-8--5--2-----8-8-5-5--2-5-2-------|
E|-------------------------------------3-----------------3-----|


=============================================================================


|Bass Solo|
Repeat Chorus 6 (One time only)
Repeat Chorus 2 (x17 Through solo)

Solo
e|--------------------------------------------------------------------------|
B|--------------------------------------------------------------------------|
G|-10vb11-10vb11-10vb11--10b11b10-8----8vvv---8--8--8-10vvv-8-5/4/3vvv-10vv-|
D|-----------------------------------10-----10--10-10-----------------------|
A|--------------------------------------------------------------------------|
E|--------------------------------------------------------------------------|

Chorus 3 along with Chorus 10

Chorus 10 (Distorted Guitar)
e|--------------------------8------8--------------------------------|
B|------------------10-10-8-----10---10--8----8--10--8--6-----------|
G|----------------------------------------------------------8--7--5-|
D|-3--0-------------------------------------------------------------|
A|-------2----------------------------------------------------------|
E|----------3-------------------------------------------------------|

Noticed that the solo was not in the other 2 tabs and there were a few errors in them so 
I tabbed the entire song. Hope you all enjoy it! If you have any questions, 
corrections, just leave a comment.
Tap to rate this tab
 
# A B C D E F G H I J K L M N O P Q R S T U V W X Y Z