Song name
# A B C D E F G H I J K L M N O P Q R S T U V W X Y Z

Franz Ferdinand - Eleanor Put Your Boots On tab

Intro:  G Bm x2

  G           Bm        G       Bm

e-----------7-10-7---7|---------7-10-7---7|---------7-10-7-10-14|
B-8-7-8-7-8--------7--|-7-8-7-8--------7--|-7-8-7-8-------------|
G---------------------|-------------------|---------------------|
D---------------------|-------------------|---------------------|
A---------------------|-------------------|---------------------|
E---------------------|-------------------|---------------------|

C                      Bm 
Eleanor put those boots back on
         C              Bm  
Kick the heels into the Brooklyn dirt
  C             Bm           D#dim
I know it isn't dignified to run
           G           D          C            Bm 
But if you run You can run to the Coney Island rollercoaster
G           D                 C               Bm
Ride to the highest point and leap across the filthy water
C              Bm                        F
Leap until the Gulf Stream's brought you down

G Bm

G                         Bm      
I could be there when you land 

G                         Bm        C
I could be there when you land 

Bridge:
 Gm   C        Gm        C        Gm         C       Em       C
    e|--------|------------------|------------------|-----------------|
    B|--------|------------------|------------------|-----------------|
    G|9-9p7-- |7---------9-9p7---|7---------9-9-7---|-----------------|
    D|------10|--8-5-7-8-------10|--8-5-7-8-------10|9-9-7----7-7-----|
    A|--------|------------------|------------------|------10-----10-9|
    E|--------|------------------|------------------|-----------------|

      Em       B7
    e|---------------|
    B|---------------|
    G|---------------|
    D|9-9-7----------|
    A|------10-9-----|
    E|---------------|

   C              Bm
So Eleanor take a Greenpoint three-point 
C                Bm
Turn towards the hidden sun
    C               Bm               D#dim
You know you are so elegant when you run
          G           D
Oh if you run you can run to that 
C               Bm
Statue with the dictionary
G            D
Climb to her fingernail and
C                  Bm
Leap, yeah take an atmospheric 
C                Bm                 F
Leap and let the jet stream set you down


G           Bm        
e-----------7-10-7---7|
B--7-8-7-8---------7--|   
G---------------------| x4
D---------------------|
A---------------------|
E---------------------|
I could be....

G                         Bm        C
I could be there when you land 

Bridge:
Gm   C        Gm        C        Gm         C       Em       C
    e|--------|------------------|------------------|-----------------|
    B|--------|------------------|------------------|-----------------|
    G|9-9p7-- |7---------9-9p7---|7---------9-9-7---|-----------------|
    D|------10|--8-5-7-8-------10|--8-5-7-8-------10|9-9-7----7-7-----|
    A|--------|------------------|------------------|------10-----10-9|
    E|--------|------------------|------------------|-----------------|

      Em       D
    e|---------------|
    B|---------------|
    G|---------------|
    D|9-9-7----7-----|
    A|------10-------|
    E|---------------|


   G                 D
So Eleanor put those boots back on
G                  D              C
Put the boots back on and run and run
             Em
Come on over here 
C            Em
Come on over here
C            G
Come on over here
Tap to rate this tab
# A B C D E F G H I J K L M N O P Q R S T U V W X Y Z