Song name
# A B C D E F G H I J K L M N O P Q R S T U V W X Y Z

Franz Ferdinand - Darts Of Pleasure tab

*----------------------------------PLEASE NOTE--------------------------------*
*This file is the author's own work and represents their interpretation of the*
*song. You may only use this file for private study, scholarship, or research.*
*-----------------------------------------------------------------------------*

Releaser on September 8th 2003, "Darts of Pleasure" is the debut single by the
Glasgow indie-rock band, Franz Ferdinand, from their homonym first album.
It made its way to #44 UK Singles chart, and was widely acclaimed by the critics.
A catchy song with obscure and seductive lyrics and a very simple rhythmic line.

Tabbed by Pelusteriano
Contact at my UG profile
Lyrics by Alexander Kapranos & Nicholas McCarthy (official lyrics from album)
Music by Franz Ferdinand
Key of C major
Tempo 150 bpm, 4/4

===============================================================================

SYMBOLS
X, muted note   v, vibrato   b, bend   r, release   
/ or \, slide up or down   ( ), hold/previous note


INTRO

bassline arr. for guitar
A|--------0-0--0-|----------------|
E|-2-2--2--------|-2-2--2-0-0-0-1-|


VERSE I
                                        ________________________________
Gtr 1. Alex Kapranos                   |1.
|| ---------------|--------------------|---------------|---------------- ||
|| -X-X-2--X-X-2--|-X-X-2--------------|-X-X-2--X-X-2--|-X-X-2---------- ||
||O-X-X-2--X-X-2--|-X-X-2--4b6-(6)r4-2-|-X-X-2--X-X-2--|-X-X-2--4-4-4-2-O||
||O-X-X-4--X-X-4--|-X-X-4--------------|-X-X-4--X-X-4--|-X-X-4----------O||
|| -X-X-4--X-X-4--|-X-X-4--------------|-X-X-4--X-X-4--|-X-X-4---------- ||
|| ---------------|--------------------|---------------|---------------- ||
|
|Gtr 2. Nick McCarthy
|| ----------------|-------------------|---------------|---------------- ||
|| ----------------|-------------------|---------------|---------------- ||
||O----------------|-------------------|---------------|----------------O||
||O-4-4---4/7-7---7\4---2-2-3-3--------|-4-4---4/7-7--7\4---2-2-3-3-----O||
|| -4-4---4/7-7---7\4---2-2-3-3--------|-4-4---4/7-7--7\4---2-2-3-3----- ||
|| -2-2---2/5-5---5\2---0-0-1-1--------|-2-2---2/5-5--5\2---0-0-1-1----- ||x2
 You are the latest contender         You are the one to remember 
 You are the villain who sends a 

 ________________________
|2.
  E
|-0----------|------------|
|-0----------|------------|
|-1----------|------------|
|-2----------|------------|
|-2----------|------------|
|-0----------|------------|
|
|
|------------|------------|
|------------|------------|
|------------|------------|
|------------|------------|
|------------|------------|
|-0--4--5--6-|-7--5--4--0-|
 Line of dark, fantastic passion 


VERSE II
  
  F#m
|---------------|--------------------|---------------|----------------|
|-X-X-2--X-X-2--|-X-X-2--------------|-X-X-2--X-X-2--|-X-X-2----------|
|-X-X-2--X-X-2--|-X-X-2--4b6-(6)r4-2-|-X-X-2--X-X-2--|-X-X-2--4-4-4-2-|
|-X-X-4--X-X-4--|-X-X-4--------------|-X-X-4--X-X-4--|-X-X-4----------|
|-X-X-4--X-X-4--|-X-X-4--------------|-X-X-4--X-X-4--|-X-X-4----------|
|---------------|--------------------|---------------|----------------|
|
| F#5     A5      F#5 E5  F5           F#5     A5     F#5 E5  F5
|----------------|-------------------|---------------|----------------|
|----------------|-------------------|---------------|----------------|
|----------------|-------------------|---------------|----------------|
|-4-4---4/7-7---7\4---2-2-3-3--------|-4-4---4/7-7--7\4---2-2-3-3-----|
|-4-4---4/7-7---7\4---2-2-3-3--------|-4-4---4/7-7--7\4---2-2-3-3-----|
|-2-2---2/5-5---5\2---0-0-1-1--------|-2-2---2/5-5--5\2---0-0-1-1-----|
 I know that you will surrender      I know that you will surrender 


  E                   Em(quick strums)
|-0----------|--------0-0-|-0----|
|-0----------|--------0-0-|-0----|
|-1----------|--------0-0-|-0----|
|-2----------|--------2-2-|-2----|
|-2----------|--------2-2-|-2----|
|-0----------|--------0-0-|-0----|
|
|
|------------|------------|------|
|------------|------------|------|
|------------|------------|------|
|------------|------------|------|
|------------|------------|------|
|-0--4--5--6-|-7--5--4--0-|------|
I want this fantastic passion 
                        Will have fantastic passion 

CHORUS
  C5                                  E5
|-----------------|-----------------|-----------------|-----------------|
|-----------------|-----------------|-----------------|-----------------|
|-5-5-5-5-5-5-5-5-|-5-5-5-5-5-5-5-5-|-9-9-9-9-9-9-9-9-|-9-9-9-9-9-9-9-9-|
|-5-5-5-5-5-5-5-5-|-5-5-5-5-5-5-5-5-|-9-9-9-9-9-9-9-9-|-9-9-9-9-9-9-9-9-|
|-3-3-3-3-3-3-3-3-|-3-3-3-3-3-3-3-3-|-7-7-7-7-7-7-7-7-|-7-7-7-7-7-7-7-7-|
|-----------------|-----------------|-----------------|-----------------|
|
| 1/4 tone bends
|-----------------|-----------------|-----------------|-----------------|
|-5b--5b--5b--5b--|-5b--5b--3-------|-----------------|-----------------|
|-----------------|-------------5---|-4vv-------------|-----------0-----|
|-----------------|-----------------|------2-2-2---0--|-2---2-0-2-------|
|-----------------|-----------------|-----------------|-----------------|
|-----------------|-----------------|-----------------|-----------------|
  You can feel my lips undress your   eyes              Undress your 

  A5                                  E5
|-----------------|-----------------|-----------------|-----------------|
|-----------------|-----------------|-----------------|-----------------|
|-----------------|-----------------|-9-9-9-9-9-9-9-9-|-9-9-9-9-9-9-9-9-|
|-7-7-7-7-7-7-7-7-|-7-7-7-7-7-7-7-7-|-9-9-9-9-9-9-9-9-|-9-9-9-9-9-9-9-9-|
|-7-7-7-7-7-7-7-7-|-7-7-7-7-7-7-7-7-|-7-7-7-7-7-7-7-7-|-7-7-7-7-7-7-7-7-|
|-5-5-5-5-5-5-5-5-|-5-5-5-5-5-5-5-5-|-----------------|-----------------|
|
|
|-----------------|-----------------|-----------------|-----------------|
|---------1-------|-----------------|-----------------|-----------------|
|-2---2-----2-X-2vvv--2---2---X-----|-----------------|-----------0-----|
|-----------------|--------------4--|-5b6v-2-2-2---0--|-2---2-0-2-------|
|-----------------|-----------------|-----------------|-----------------|
|-----------------|-----------------|-----------------|-----------------|
  eyes,             undress you       eyes

  C5                                  E5
|-----------------|-----------------|-----------------|-----------------|
|-----------------|-----------------|-----------------|-----------------|
|-5-5-5-5-5-5-5-5-|-5-5-5-5-5-5-5-5-|-9-9-9-9-9-9-9-9-|-9-9-9-9-9-9-9-9-|
|-5-5-5-5-5-5-5-5-|-5-5-5-5-5-5-5-5-|-9-9-9-9-9-9-9-9-|-9-9-9-9-9-9-9-9-|
|-3-3-3-3-3-3-3-3-|-3-3-3-3-3-3-3-3-|-7-7-7-7-7-7-7-7-|-7-7-7-7-7-7-7-7-|
|-----------------|-----------------|-----------------|-----------------|
|
|
|-----------------|-----------------|-----------------|-----------------|
|-----------------|-----------------|-----------------|-----------------|
|-4---4-4-4-4-4-4-|-4-4-4-4---------|----------4------|---4------4------|
|-2---2-2-2-2-2-2-|-2-2-2-2---------|-2----2-2-4---2--|-2-4--2-2-4------|
|-----------------|---------5---3---|-2----2-2-2---2--|-2-2--2-2-2------|
|-----------------|-----------------|-0----0-0-----0--|-0----0-0----3b--|
 Words of love and words so leisured  Words are poisoned darts of pleasure 

  B                                   E5                       A#5
|-----------------|-----------------|-----------------|----------------|
|-----------------|-----------------|-----------------|----------------|
|-8-8-8-8-8-8-8-8-|-8-8-8-8-8-8-8-8-|-9-9-9-9-9-9-9-9-|-9--------------|
|-9-9-9-9-9-9-9-9-|-9-9-9-9-9-9-9-9-|-9-9-9-9-9-9-9-9-|-9------8-8-8-0-|
|-9-9-9-9-9-9-9-9-|-9-9-9-9-9-9-9-9-|-7-7-7-7-7-7-7-7-|-7------8-8-8-0-|
|-7-7-7-7-7-7-7-7-|-7-7-7-7-7-7-7-7-|-----------------|--------6-6-6-0-|
|
|
|-----------------|-----------------|-----------------|----------------|
|-----------------|-----------------|-5-5-5-5-5-5-5-5-|-5------3-3-3-0-|
|-4-4-4-4-4-4-4-4-|-4-4-4-4-4-4-4-4-|-4-4-4-4-4-4-4-4-|-4------3-3-3-0-|
|-4-4-4-4-4-4-4-4-|-4-4-4-4-2-0-2-0-|-2-2-2-2-2-2-2-2-|-2------3-3-3-0-|
|-2-2-2-2-2-2-2-2-|-2-2-2-2---------|-----------------|----------------|
|-----------------|-----------------|-----------------|----------------|
  "Die"...           And so you      die


VERSE III                               ________________________________
                                       |1.
|| ---------------|--------------------|---------------|---------------- ||
|| -X-X-2--X-X-2--|-X-X-2--------------|-X-X-2--X-X-2--|-X-X-2---------- ||
||O-X-X-2--X-X-2--|-X-X-2--4b6-(6)r4-2-|-X-X-2--X-X-2--|-X-X-2--4-4-4-2-O||
||O-X-X-4--X-X-4--|-X-X-4--------------|-X-X-4--X-X-4--|-X-X-4----------O||
|| -X-X-4--X-X-4--|-X-X-4--------------|-X-X-4--X-X-4--|-X-X-4---------- ||
|| ---------------|--------------------|---------------|---------------- ||
|
|
|| ----------------|-------------------|---------------|---------------- ||
|| ----------------|-------------------|---------------|---------------- ||
||O----------------|-------------------|---------------|----------------O||
||O-4-4---4/7-7---7\4---2-2-3-3--------|-4-4---4/7-7--7\4---2-2-3-3-----O||
|| -4-4---4/7-7---7\4---2-2-3-3--------|-4-4---4/7-7--7\4---2-2-3-3----- ||
|| -2-2---2/5-5---5\2---0-0-1-1--------|-2-2---2/5-5--5\2---0-0-1-1----- ||x2
 You are the latest adventure           You're an emotion avenger 
 You are the devil that sells a 
 ________________________
|2.
  E
|-0----------|------------|
|-0----------|------------|
|-1----------|------------|
|-2----------|------------|
|-2----------|------------|
|-0----------|------------|
|
|
|------------|------------|
|------------|------------|
|------------|------------|
|------------|------------|
|------------|------------|
|-0--4--5--6-|-7--5--4--0-|
Line of dark, fantastic passion 


VERSE IV

  F#m
|---------------|--------------------|---------------|----------------|
|-X-X-2--X-X-2--|-X-X-2--------------|-X-X-2--X-X-2--|-X-X-2----------|
|-X-X-2--X-X-2--|-X-X-2--4b6-(6)r4-2-|-X-X-2--X-X-2--|-X-X-2--4-4-4-2-|
|-X-X-4--X-X-4--|-X-X-4--------------|-X-X-4--X-X-4--|-X-X-4----------|
|-X-X-4--X-X-4--|-X-X-4--------------|-X-X-4--X-X-4--|-X-X-4----------|
|---------------|--------------------|---------------|----------------|
|
| F#5     A5      F#5 E5  F5           F#5     A5     F#5 E5  F5
|----------------|-------------------|---------------|----------------|
|----------------|-------------------|---------------|----------------|
|----------------|-------------------|---------------|----------------|
|-4-4---4/7-7---7\4---2-2-3-3--------|-4-4---4/7-7--7\4---2-2-3-3-----|
|-4-4---4/7-7---7\4---2-2-3-3--------|-4-4---4/7-7--7\4---2-2-3-3-----|
|-2-2---2/5-5---5\2---0-0-1-1--------|-2-2---2/5-5--5\2---0-0-1-1-----|
I know that you will surrender        I know that you will surrender 

  E                   Em(quick strums)
|-0----------|--------0-0-|-0----|
|-0----------|--------0-0-|-0----|
|-1----------|--------0-0-|-0----|
|-2----------|--------2-2-|-2----|
|-2----------|--------2-2-|-2----|
|-0----------|--------0-0-|-0----|
|
|
|------------|------------|------|
|------------|------------|------|
|------------|------------|------|
|------------|------------|------|
|------------|------------|------|
|-0--4--5--6-|-7--5--4--0-|------|
I want this fantastic passion 
                      Will have fantastic passion 

CHORUS

  Palm Mute gtr 1
  C5                                  E5
|-----------------|-----------------|-----------------|-----------------|
|-----------------|-----------------|-----------------|-----------------|
|-----------------|-----------------|-----------------|-----------------|
|-5-5-5-5-5-5-5-5-|-5-5-5-5-5-5-5-5-|-9-9-9-9-9-9-9-9-|-9-9-9-9-9-9-9-9-|
|-3-3-3-3-3-3-3-3-|-3-3-3-3-3-3-3-3-|-7-7-7-7-7-7-7-7-|-7-7-7-7-7-7-7-7-|
|-----------------|-----------------|-----------------|-----------------|
  You can feel my lips undress your   eyes              Undress your

  A5                                  E5
|-----------------|-----------------|-----------------|-----------------|
|-----------------|-----------------|-----------------|-----------------|
|-----------------|-----------------|-----------------|-----------------|
|-----------------|-----------------|-9-9-9-9-9-9-9-9-|-9-9-9-9-9-9-9-9-|
|-7-7-7-7-7-7-7-7-|-7-7-7-7-7-7-7-7-|-7-7-7-7-7-7-7-7-|-7-7-7-7-7-7-7-7-|
|-5-5-5-5-5-5-5-5-|-5-5-5-5-5-5-5-5-|-----------------|-----------------|
  eyes,             undress your      eyes

  C5                                  E5
|-----------------|-----------------|-----------------|-----------------|
|-----------------|-----------------|-----------------|-----------------|
|-5-5-5-5-5-5-5-5-|-5-5-5-5-5-5-5-5-|-9-9-9-9-9-9-9-9-|-9-9-9-9-9-9-9-9-|
|-5-5-5-5-5-5-5-5-|-5-5-5-5-5-5-5-5-|-9-9-9-9-9-9-9-9-|-9-9-9-9-9-9-9-9-|
|-3-3-3-3-3-3-3-3-|-3-3-3-3-3-3-3-3-|-7-7-7-7-7-7-7-7-|-7-7-7-7-7-7-7-7-|
|-----------------|-----------------|-----------------|-----------------|
|
| 1/4 tone bends
|-----------------|-----------------|-----------------|-----------------|
|-5b--5b--5b--5b--|-5b--5b--3-------|-----------------|-----------------|
|-----------------|-------------5---|-4vv-------------|-----------0-----|
|-----------------|-----------------|------2-2-2---0--|-2---2-0-2-------|
|-----------------|-----------------|-----------------|-----------------|
|-----------------|-----------------|-----------------|-----------------|
  Skin can feel my lips they tingle,  tense anticipation 

  A5                                  E5
|-----------------|-----------------|-----------------|-----------------|
|-----------------|-----------------|-----------------|-----------------|
|-----------------|-----------------|-----------------|-----------------|
|-----------------|-----------------|-9-9-9-9-9-9-9-9-|-9-9-9-9-9-9-9-9-|
|-7-7-7-7-7-7-7-7-|-7-7-7-7-7-7-7-7-|-7-7-7-7-7-7-7-7-|-7-7-7-7-7-7-7-7-|
|-5-5-5-5-5-5-5-5-|-5-5-5-5-5-5-5-5-|-----------------|-----------------|
|
|
|-----------------|-----------------|-----------------|-----------------|
|---------1-------|-----------------|-----------------|-----------------|
|-2---2-----2-X-2vvv--2---2---X-----|-----------------|-----------0-----|
|-----------------|--------------4--|-5b6v-2-2-2---0--|-2---2-0-2-------|
|-----------------|-----------------|-----------------|-----------------|
|-----------------|-----------------|-----------------|-----------------|
  This one is an easy one             Feel the word and melt upon it 

  C5                                  E5
|-----------------|-----------------|-----------------|-----------------|
|-----------------|-----------------|-----------------|-----------------|
|-----------------|-----------------|-----------------|-----------------|
|-5-5-5-5-5-5-5-5-|-5-5-5-5-5-5-5-5-|-9-9-9-9-9-9-9-9-|-9-9-9-9-9-9-9-9-|
|-3-3-3-3-3-3-3-3-|-3-3-3-3-3-3-3-3-|-7-7-7-7-7-7-7-7-|-7-7-7-7-7-7-7-7-|
|-----------------|-----------------|-----------------|-----------------|
|
|                                     E5       B5  E5     B5 E5  B5
|-----------------|-----------------|-----------------|-----------------|
|-----------------|-----------------|-----------------|-----------------|
|-4---4-4-4-4-4-4-|-4-4-4-4---------|----------4------|---4------4------|
|-2---2-2-2-2-2-2-|-2-2-2-2---------|-2----2-2-4---2--|-2-4--2-2-4------|
|-----------------|---------5---3---|-2----2-2-2---2--|-2-2--2-2-2------|
|-----------------|-----------------|-0----0-0-----0--|-0----0-0----3b--|
 Words of love and words so leisured  Words are poisoned darts of pleasure 

  B                                   E5                      
|-----------------|-----------------|-----------------|----|
|-----------------|-----------------|-----------------|----|
|-8-8-8-8-8-8-8-8-|-8-8-8-8-8-8-8-8-|-9-9-9-9-9-9-9-9-|-9--|
|-9-9-9-9-9-9-9-9-|-9-9-9-9-9-9-9-9-|-9-9-9-9-9-9-9-9-|-9--|
|-9-9-9-9-9-9-9-9-|-9-9-9-9-9-9-9-9-|-7-7-7-7-7-7-7-7-|-7--|
|-7-7-7-7-7-7-7-7-|-7-7-7-7-7-7-7-7-|-----------------|----|
|
| B5                                  E5
|-----------------|-----------------|-----------------|----|
|-----------------|-----------------|-5-5-5-5-5-5-5-5-|-5--|
|-4-4-4-4-4-4-4-4-|-4-4-4-4-4-4-4-4-|-4-4-4-4-4-4-4-4-|-4--|
|-4-4-4-4-4-4-4-4-|-4-4-4-4-2-0-2-0-|-2-2-2-2-2-2-2-2-|-2--|
|-2-2-2-2-2-2-2-2-|-2-2-2-2---------|-----------------|----|
|-----------------|-----------------|-----------------|----|
  "Die",           so I               die

BASS INTERLUDE
(you can play G  E  G  E... through)

OUTRO (both guitars)
 
    G                E                  G                E
|| -3--3--3--3-----|------------------|-3--3--3--3-----|------------------|
|| -3--3--3--3-X-X-|-5-5-5--5--5--X-X-|-3--3--3--3-X-X-|-5-5-5--5--5--X-X-|
||O-4--4--4--4-X-X-|-4-4-4--4--4--X-X-|-4--4--4--4-X-X-|-4-4-4--4--4--X-X-|
||O-5--5--5--5-X-X-|-2-2-0--2--2--X-X-|-5--5--5--5-X-X-|-2-2-0--2--2--X-X-|
|| -5--5--5--5-X-X-|--------------X-X-|-5--5--5--5-X-X-|--------------X-X-|
|| -3--3--3--3-----|------------------|-3--3--3--3-----|------------------|
 Ich heisse      superfantastische,  Ich trinke       Champers mit lachsfisch
                                 __________________________________
                                |1,2.
  G                A                (slow bend, pick while bending)
|-3--3--3--3-----|-------------|-----------------|----------------- ||
|-3--3--3--3-X-X-|-5--5--5--5--|---8--10b12(12)12-12-12-12r10-8---- ||
|-4--4--4--4-X-X-|-6--6--6--6--|-9---------------|--------------9--O||
|-5--5--5--5-X-X-|-7--7--7--7--|-----------------|-----------------O||
|-5--5--5--5-X-X-|-7--7--7--7--|-----------------|----------------- ||
|-3--3--3--3-----|-5--5--5--5--|-----------------|----------------- ||
|
|                                E5
|-3--3--3--3-----|-------------|-----------------|----------------- ||
|-3--3--3--3-X-X-|-5--5--5--5--|-5-5-5-5-5-5-5-5-|----------------- ||
|-4--4--4--4-X-X-|-6--6--6--6--|-4-4-4-4-4-4-4-4-|-----------------O||
|-5--5--5--5-X-X-|-7--7--7--7--|-2-2-2-2-2-2-2-2-|-----------------O||
|-5--5--5--5-X-X-|-7--7--7--7--|-----------------|----------------- ||
|-3--3--3--3-----|-5--5--5--5--|-----------------|----------------- ||x3
  Ich heisse       s u p e r fantastische!

  ____
 |3.
  E
|-0000000000000000-0--|
|-0000000000000000-0--|
|-1111111111111111-1--|
|-2222222222222222-2--|
|-2222222222222222-2--|
|-0000000000000000-0--|
 -tische!
Tap to rate this tab
 
# A B C D E F G H I J K L M N O P Q R S T U V W X Y Z