Song name
# A B C D E F G H I J K L M N O P Q R S T U V W X Y Z

Franz Ferdinand - Love Illumination tab

-------------------------------------------------------------------------

                        LOVE ILLUMINATION - Franz Ferdinand
-------------------------------------------------------------------------


Here it is! The intro to the new song LI!

INFO: There is already a correct-sounding tab here on UG, but this is how the band 
plays it on track and live.





e|---------------------------------------------------------------------------|
B|---------------------------------------------------------------------------|
G|---------------------------------------------------------------------------|
D|---------------------------------------------------------------------------|
A|------0-1-2---12-10-7------0-1-2----12-10-7-------0-1-2-3---12-10-5-7------|
E|-0-3--------0----------0-3--------0-----------0-3--------------------------|

e|---------------------------------------------------------------------------|
B|---------------------------------------------------------------------------|
G|---------------------------------------------------------------------------|
D|----------------------------0-1-2------------------------------------------|
A|---3-2-0---0-12-10-7----0-3---------12-10-7------0-1-2-----12-10-5-7-------|
E|-0-------3------------------------0----------0-3-------0-------------------|


Band: Franz Ferdinand
Song: Love Illumination
Album: Right Thoughts, Right Words, Right Action
Year: 2013
Tap to rate this tab
# A B C D E F G H I J K L M N O P Q R S T U V W X Y Z