Song name
# A B C D E F G H I J K L M N O P Q R S T U V W X Y Z

Franz Ferdinand - Treason Animals tab

My first tab and Im aware its not the best with timings and stuff, however it is 100%
correct. Find your own timings, its really easy. THANKS


Intro Riff
E|-------------------------------------|
B|--2--2--4--2-------------------------|
G|--------------2----4--4--2--2--------|
D|-------------------------------2--4--|
A|-------------------------------------|
E|-------------------------------------|


Hey Friends...  (Or could be played as a power chord)
E|--------------------------------------------------------------------------------------|
B|--------------------------------------------------------------------------------------|
G|--------------------------------------------------------------------------------------|
D|--------------------------------------------------------------------------------------|
A|--------------------------------------------------------------------------------------|
E|--2--2--2--2--2--2--2--2--2--2--2--2--2--2--2--2--2--2--2--2--2--2--2--2--2--2--2--2--|


      Dont care   what you talk about.  Hey friends..
E|--0------------------------------------------------------------------------------------|
B|--0------------4-----------------------------------------------------------------------|
G|--1------------4-----------------------------------------------------------------------|
D|--2------------4-----------------------------------------------------------------------|
A|--2------------2-----------------------------------------------------------------------|
E|---------------------------------------2--2--2--2--2--2--2--2--2--2--2--2--2--2--2--2--|


      Something has  really really gone wrong, here here        something..
E|--0---------------------------------------------------------0------------|
B|--0----------------4------------------2-----------5--7------0------------|
G|--1----------------4------------------3-----------6--8------1------------|
D|--2----------------4------------------4-----------7--9------2------------|
A|--2----------------2------------------4-----------7--9------2------------|
E|-------------------------------------------------------------------------|

Chorus                 Im a king so give me a crown, I am an animal oh give me an animal crown
E|------------------------------------------------------------------0-----------------|
B|------------------------------------------------------------------0--------------4--|
G|-----4--6------------6--------------------------------------------1--------------4--|
D|--6--4--6-(X3)-------6-------------6---------------5--------------2--------------4--|
A|--6--2--4------------4-------------6---------------5--------------2--------------2--|
E|--4--------------------------------4---------------3--------------------------------|

E|-------------------------------------|
B|--2--2--4--2-------------------------|
G|--------------2----4--4--2--2--------|
D|-------------------------------2--4--| (4 times)
A|-------------------------------------|
E|-------------------------------------|

THE LIVE VERSIONS VARY WITH ALEX PLAYING THE SAME AS HE DOES IN THE FIRST VERSE FOR THE SECOND,
IN ANOTHER HE PLAYS NOTHING, DO AS YOU PLEASE THE CHORDS ARE THE SAME. SECOND CHORUS 
SAME AS FIRST.


   I am an animal oh.....                         I am an animal oh....
E|-----------------------------------------------------------------------------------------|
B|-----------------------------------------------------------------------------------------|
G|-----------------------------------------------------------------------------------------|
D|-----------------------------------------------------------------------------------------|
A|-----------------------------------------------------------------------------------------|
E|--2--2--2--2--2--2--2--2--2--2--2--2--2--2--2--2--4--4--4--4--4--4--4--4--4--4--4--4--4--|


      Something has really, really gone wrong
E|--0-------------------------------------2--|
B|--0---------------4---------------------2--|
G|--1---------------4---------------------2--|
D|--2---------------4---------------------4--|
A|--2---------------2---------------------4--|
E|----------------------------------------2--|
Tap to rate this tab
# A B C D E F G H I J K L M N O P Q R S T U V W X Y Z