Song name
# A B C D E F G H I J K L M N O P Q R S T U V W X Y Z

Franz Ferdinand - No You Girls tab

-------------------------------------------------------------------------------
                             No You Girls - Franz Ferdinand
-------------------------------------------------------------------------------
Tabbed by:Emilyalim
E-mail:emilyalimm@gmail.com

Tuning:Standard

Intro:
e|--------|-------|-------|
B|-8-6-8--|-6-5-6-|-5-3-5-|
G|--------|-------|-------|
D|--------|-------|-------|
A|--------|-------|-------|
E|--------|-------|-------|

Verse:
e|------------------|
B|------------------|
G|-2h3--------------|
D|------5-x-3-5-5---|
A|------------------|
E|------------------| Repeat

e|------------------|
B|------------------|
G|-2h3----2h3-------|
D|------5-----5-5---|
A|------------------|
E|------------------|


e|-3-3-3-3-3-3-3-3--|-5\--|
B|-5-5-5-5-5-5-5-5--|-7\--|
G|-3-3-3-3-3-3-3-3--|-5\--|
D|------------------|-----|
A|------------------|-----|
E|------------------|-----|


Pre-chorus
e|--------------------|
B|--------------------|
G|--3---2-------------|
D|-----------5--------|
A|--------------------|
E|--------------------| Repeat


Chorus:

Gm
No you girls never know

Oh no you girls never know

No you girls never know
c         A#         Gm
How you make a boy feel


Gm
No you girls never know

Oh no you girls never know

No you girls never know
c         A#         Gm
How you make a boy feel
C         A#         
How you make a boy feel

e|--------------------|
B|--------------------|
G|-2h3----------------|
D|------5-x-3h4-5-5---|
A|--------------------|
E|--------------------| x4

...meet me
e|-3-3--3-3--|3-3--3-3---|
B|-3-3--3-3--|3-3--3-3---|
G|-----------|-----------|
D|-----------|-----------|
A|-----------|-----------|
E|-----------|-----------|

Verse:
e|------------------|
B|------------------|
G|-2h3--------------|
D|------5-x-3-5-5---|
A|------------------|
E|------------------| Repeat


e|------------------|
B|------------------|
G|-2h3----2h3-------|
D|------5-----5-5---|
A|------------------|
E|------------------|

e|-3-3-3-3-3-3-3-3--|-5\--|
B|-5-5-5-5-5-5-5-5--|-7\--|
G|-3-3-3-3-3-3-3-3--|-5\--|
D|------------------|-----|
A|------------------|-----|
E|------------------|-----|

Pre-chorus
e|--------------------|
B|--------------------|
G|--3---2-------------|
D|-----------5--------|
A|--------------------|
E|--------------------| x4


Chorus:

Gm
No you girls never know

Oh no you girls never know

No you girls never know
c         A#         Gm
How you make a boy feel


Gm
No you girls never know

Oh no you girls never know

No you girls never know
c         A#         Gm
How you make a boy feel
C         A#         Gm
How you make a boy feel
c         A#         
How you make a boy feel


Bridge:

Em        | Em         | F#m
Sometimes I say stupid things
      |Bm
That I think well, I mean I
C               | C
Sometimes I think the stupidest things


Pre-chorus
e|--------------------|
B|--------------------|
G|--3---2-------------|
D|-----------5--------|
A|--------------------|
E|--------------------| x6


Gm Gm Gm



Chorus:

Gm
No you boys never care

Oh no you boys'll never care

No you boys never care
c     A#         Gm
How the girl feels


Gm
No you boys never care

Oh no you boys'll never care

No you boys never care
c     A#         Gm
How the girl feels
C      A#         Gm
Oh how the girl feels
c         A#         
Oh how the girl feels


Intro:
e|--------|-------|-------|
B|-8-6-8--|-6-5-6-|-5-3-5-|
G|--------|-------|-------|
D|--------|-------|-------|
A|--------|-------|-------|
E|--------|-------|-------|


End on Gm


Strum pattern (chorus)

e|--d-d--x-x---d--d--u--x--u--d-|
B|--d-d--x-x---d--d--u--x--u--d-|
G|--d-d--x-x---d--d--u--x--u--d-|
D|--d-d--x-x---d--d--u--x--u--d-|
A|--d-d--x-x---d--d--u--x--u--d-|
E|--d-d--x-x---d--d--u--x--u--d-|


************************************

| /   slide up
| \   slide down
| h   hammer-on
| p   pull-off
| ~   vibrato
| +   harmonic
| x   Mute note
| b   Bend
| pb  Pre-bend
| br  Bend release
| pbr Pre-bend release
| brb Bend release bend

************************************
Tap to rate this tab
# A B C D E F G H I J K L M N O P Q R S T U V W X Y Z