Song name
# A B C D E F G H I J K L M N O P Q R S T U V W X Y Z

Franz Ferdinand - Goodbye Lovers And Friends chords

Highlighted       Show chord diagrams
If you want to play this amazing song from Franz Ferdinand's new album,I think 
these chords will work perfectly. I also wrote down the solo part in style of 
"Right Notes, Right Words, Wrong Order" session.

Intro: Am C Am C Am E Am E Am E Am E 

Am            E
Dont play pop music
Am                  E
You know I hate pop music
Am         E             Am        E
Just sing amazing godless grace

 
Am               E  
Dont wear bright colours
Am                     E
You know I hate bright colours
Am                E               Am      
I never liked you for the way you dressed
E
Anyway

 
Am  G   C              F
Goodbye lovers and friends
Am G        Am     E       
So sad to leave you
Am        G                  
When they lie and say
C       F
This is not the end
Am      G
you can laugh as if
      C       F
we re still together
Am      E               Am 
you can laugh about it all
E
Anyway

Am                     E
I hope you didnt bring flowers
Am                     E
Hope you didnt write a poem
Am         E           Am     E
Hope you remember every fight

 
Am                E
I know I could be noxious
Am              E
Or occasionally cruel
Am        E
But only to the ones
Am      E
I loved

 
Am  G   C              F
Goodbye lovers and friends
Am G         Am     E       
So sad to leave you
Am        G                  
When they lie and say
C       F
This is not the end
Am      G
you can laugh as if
     C        F
we re still together
Am      E                 Am  Am Am(4) 
you can laugh about it all

 
Dm
Dont get inventory
Am
Dont fake your memory
F                           E
Dont give me virtues that I never had
Dm
Dont get sychophantal
Am
We never were sentimental
F                         E
I know I took more than I ever gave

Solo:

e|--------------------------------------------------8------8-----------------|
b|--10--10--10--10-8-10-8-10--10--10-8-10-8-10--10-----10-----10--10---------|
g|---------------------------------------------------------------------------|
d|---------------------------------------------------------------------------|
a|---------------------------------------------------------------------------|
E|---------------------------------------------------------------------------|

e|----------------------------8-------8-------8------8-----------------------|
b|--10--10--10--10-8-10-8-10-----10------10-----10-----10-9-10---------------|
g|---------------------------------------------------------------------------|
d|---------------------------------------------------------------------------|
a|---------------------------------------------------------------------------|
E|---------------------------------------------------------------------------|

e|----------------------10--12--10-------------------------------------------|
b|--10--12--10-8-------------------13-10-10--13------------------------------|
g|--------------9------------------------------------------------------------|
d|---------------10----------------------------------------------------------|
a|-----------------12--------------------------------------------------------|
E|---------------------------------------------------------------------------|

(2):
e|---------------------------------------------------------------------------|
b|---------------------------------------------------------------------------|
g|---------------------------------------------------------------------------|
d|---------------------------------------------------------------------------|
a|---0--3-0-3----------0--3-0-3-----------000-3-0-3-----------0--3-0-3-------|
E|--------------0--0-3------------0--0-3----------------0--0-3---------0--0-3|

Am E Am E

Am                   E
I dont need to be forgiven
Am                    E
But a moment from the living
Am        E           Am     E
Thats the only thing I ask
Am               E
So dont play pop music
Am                  E
You know I hate pop music
Am         E             Am     E
Just sing amazing godless grace

 
Am  E   G             Dm
Goodbye lovers and friends
Am G        Am      E       
So sad to leave you 
Am        G                  
When they lie and say
C       F
This is not the end
Am      G
you can laugh as if
      C       F
we re still together

Am       E             Am
but this really is the end
  
Tap to rate this tab
 
# A B C D E F G H I J K L M N O P Q R S T U V W X Y Z